top separator

Home

Forum

FAQ

Contact Us

Link to Us

MetalTabs.com logo

Bands

0-9

A

B

C

D

E

F

G

H

I

J

K

L

M

N

O

P

Q

R

S

T

U

V

W

X

Y

Z

Vreid - "Evig Pine" Bass Tab

Plain Text Version
More Vreid Tabs

Hits: 768
Updated: 2006-08-17 05:28:14

By:


#----------------------------------PLEASE NOTE---------------------------------#
#This file is the author's own work and represents their interpretation of the #
#song. You may only use this file for private study, scholarship, or research. #
#Unless specified otherwise, this is NOT an official tab from the band members.#
#------------------------------------------------------------------------------#

  Visit MetalTabs.com for more metal tablature
  
Band:  Vreid
Album: Kraft
Song:  Evig Pine

Copyright (c)  Tabu Recordings 2004
Version 1.0 -  18.07.06

Transcribed By: webster
Email:          Alex-Webster@web.de


Tuning: E A D G


|-----------------------|
|-----------------------|
|-----------------------|
|--6666-5555-3333-5555--|


3x
|------------------------------------------------------------------|
|------------------------------------------------------------------|
|------------------------------------------------------------------|
|-33333333333-434-00000000000-434-33333333333121-00000000000434--|


|---------------------------------------------------------------------|
|---------------------------------------------------------------------|
|---------------------------------------------------------------------|
|--3-3-3-3-3-3-434-0-0-0-0-0-0-434-3-3-3-3-3-3-121-0-0-0-0-0-0--3--3--|


             |4x
|------------|-----------------------------------------|
|------------|-----------------------------------------|
|------------|--------------55---------------55----66--|
|--33343-46--|--333333333333--44-333333333333--4455----|


|---------------------------|
|---------------------------|
|---------------------------|
|--66-55-33-55--66-55-33-5--|


2x
|-----------------------------------------------------|
|-----------------------------------------------------|
|--------------5555-----------------5555--------6666--|
|--333333333333----4444-333333333333----44445555------|


4x                                                             |
|--------------------------------------------------------------|------|
|--------------------------------------------------------------|------|
|------------------------33-66---------------------------------|------|
|--3-0-3-0-3-1-2-3-0-3-0-------3-0-3-0-3-1-2-0-2-0-2-0-111-44--|--6~--|


2x
|---------------------------|
|---------------------------|
|-----44----66----44-66-33--|
|--33----33----33-----------|


|--------------------------------------------------------------------|
|--------------------------------------------------------------------|
|--666666666666666677777777777777776666666666666666------------------|
|--------------------------------------------------0000000000000000--|


4x                                               |
|------------------------------------------------|------|
|------------------------------------------------|------|
|------------------------------------------------|------|
|--33333-00000-33333-00000-33333-00000-66665555--|--6~--|


4x                              |
|-------------------------------|-----|
|-------------------------------|-----|
|-------------------------------|-----|
|--0000-1-0000-1-0000-1-1111-0--|--1--|

  Visit MetalTabs.com for more metal tablature

bottom separator

Contact Us | Privacy Policy | Disclaimer
Copyright © 2001-2014 MetalTabs.com. All Rights Reserved.