top separator

Home

Forum

What's New

Submit a Tab

FAQ

Links

Contact Us

Link to Us

MuSpy.com

MetalTabs.com logo

Bands

0-9

A

B

C

D

E

F

G

H

I

J

K

L

M

N

O

P

Q

R

S

T

U

V

W

X

Y

Z

Search

What

Where
 

Debauchery (DE) - "Hordes Of Chaos" Guitar Tab

Plain Text Version
More Debauchery (DE) Tabs

Hits: 1883
Rated: 2.50 out of 5 (2 votes)
Updated: 2006-08-17 05:19:53

 

By:

grindi

sendpm.gif

email.gif

Important note
This tab is available online because we obtained explicit permission from Debauchery (DE) or their label.


#----------------------------------PLEASE NOTE---------------------------------#
#This file is the author's own work and represents their interpretation of the #
#song. You may only use this file for private study, scholarship, or research. #
#Unless specified otherwise, this is NOT an official tab from the band members.#
#------------------------------------------------------------------------------#

  Visit MetalTabs.com for more metal tablature
  
Band:  (Debauchery)
Album: (Kill Maim Burn
Song:  (Hordes Of Chaos)

Copyright (c)  (MMD) (2003)
Version 1.0 - (17.07.2006)

Transcribed By: (grindi)
Email:          (Danko-Jones@gmx.net)


.  - palm mute           /  - slide up to
\  - slide down to       ~  - vibrato
h  - hammer on           b  - Bend
p  - pull off            Suffixes for bend
t  - tap                 f  - full bend    h - half bend
ph - pinched harmonic    q  - quarter bend t - tap bend
*  - see comment         ^  - Hold bend    r release bend
x  - Stuccatto           ~  - vibrato bend
,  - slight palm mute    () - ghost note, sustained note
"  - tremolo note        <> - Trill

Tuning: D (D, G, C, F, A, D)

Riff 1
|---------------------------------------------------|
|---------------------------------------------------|
|---------------------------------------------------| 4x
|---------------------------------------------------|
|-7-9--7-9--7-9--7-7-7-5---7-9--7-9--7-9--7-7-7-5-4-|
|-5-7--5-7--5-7--5-5-5-3---5-7--5-7--5-7--5-5-5-3-2-|

Riff 2
|----------------|
|----------------|
|----------------|4x
|----------------|
|-7-9-7-9--7-5-4-|
|-5-7-5-7--5-3-2-|

Riff 1: 4x
Riff 2: 4x

Riff 3
|----------------------------------------------------------------------------|
|----------------------------------------------------------------------------|
|----------------------------------------------------------------------------|
|----------------------------------------------------------------------------|
|---------------7-9----------------7-9----------------7-9----------------7-9-|
|-0-0-0-0-0-0-0-5-7--0-0-0-0-0-0-0-5-7--0-0-0-0-0-0-0-5-7--0-0-0-0-0-0-0-5-7-|
  . . . . . . .      . . . . . . .      . . . . . . .      . . . . . . .

Riff 4
|------------------------------------------------------------------------|
|------------------------------------------------------------------------|
|------------------------------------------------------------------------|
|------------------------------------------------------------------------|
|-2--2-2-2--2--7-9--2--2-2-2--2--7-9--2--2-2-2--2--7-9--2--2-2-2--2--7-9-|
|-0--0-0-0--0--5-7--0--0-0-0--0--5-7--0--0-0-0--0--5-7--0--0-0-0--0--5-7-|

Riff 2: 4x

Riff 5

|-------------------------|
|-------------------------|
|-------------------------|
|-------------------------| 4x
|-2-2-2-2-2-2-2-2-5-4-3-3-|
|-0-0-0-0-0-0-0-0-3-2-1-1-|
  . . . . . . . .

END

  Visit MetalTabs.com for more metal tablature

bottom separator

Contact Us | Privacy Policy | Disclaimer | Legal Notice
Copyright © 2001-2014 MetalTabs.com. All Rights Reserved.