top separator

Home

Forum

What's New

Submit a Tab

FAQ

Links

Contact Us

Link to Us

MetalTabs.com logo

Bands

0-9

A

B

C

D

E

F

G

H

I

J

K

L

M

N

O

P

Q

R

S

T

U

V

W

X

Y

Z

Search

What

Where
 

Debauchery (DE) - "For God, Emperor and Fatherland" Guitar Tab

Plain Text Version
More Debauchery (DE) Tabs

Hits: 1749
Rated: 4.50 out of 5 (2 votes)
Updated: 2006-08-17 05:19:30

 

By:

grindi

sendpm.gif

email.gif

Important note
This tab is available online because we obtained explicit permission from Debauchery (DE) or their label.


#----------------------------------PLEASE NOTE---------------------------------#
#This file is the author's own work and represents their interpretation of the #
#song. You may only use this file for private study, scholarship, or research. #
#Unless specified otherwise, this is NOT an official tab from the band members.#
#------------------------------------------------------------------------------#

  Visit MetalTabs.com for more metal tablature
  
Band:  (Debauchery)
Album: (Kill Maim Burn)
Song:  (For God, Emperor and Fatherland)

Copyright (c)  (MDD) (2003)
Version 1.0 - (17.07.2006)

Transcribed By: (grindi)
Email:          (Danko-Jones@gmx.net)


.  - palm mute           /  - slide up to
\  - slide down to       ~  - vibrato
h  - hammer on           b  - Bend
p  - pull off            Suffixes for bend
t  - tap                 f  - full bend    h - half bend
ph - pinched harmonic    q  - quarter bend t - tap bend
*  - see comment         ^  - Hold bend    r release bend
x  - Stuccatto           ~  - vibrato bend
,  - slight palm mute    () - ghost note, sustained note
"  - tremolo note        <> - Trill


Tuning D (D, G, C, F, A, D)


Riff 1 (Intro)
|-------------------------|
|-------------------------|
|-------------------------|
|---------------------3~~-|
|-2-3-2-3-2-3--3-3-3--1~~-|
|-0-1-0-1-0-1--1-1-1------|
  . . . . . .  . . .

Riff 2 (Intro)
|--------------------------|
|--------------------------|
|--------------------------|
|-----------------------3~~|
|-2--2-2-2--2-2--2-2-2--1~~|
|-0--0-0-0--0-0--0-0-0-----|
  .  . . .  . .  . . .

Riff 3
|--------------------|
|--------------------|
|--------------------|
|--------------------|
|-2----2----2----5-4-|
|-0-00-0-00-0-00-3-2-|
    ..   ..   ..

Riff 4
|-----------------|
|-----------------|
|-----------------|
|-----------------|
|-2----3----5-4-3-|
|-0-00-1-00-3-2-1-|
    ..   ..

Riff 5

|-------------------------------------------------------------|
|-------------------------------------------------------------|
|-------------------------------------------------------------|
|--------------3--------------3--------------3--------------3-|
|--------------1--------------1--------------1--------------1-|
|-000000000000---000000000000---000000000000---000000000000---|
  ............   ............   ............   ............

|-------------------------------------------------------------|
|-------------------------------------------------------------|
|-------------------------------------------------------------|
|--------------3--------------3--------------3--------------3-|
|--------------1--------------1--------------1--------------1-|
|-000000000000---000000000000---000000000000---000000000000---|
  ............   ............   ............   ............

Riff 6
|--------------------------------------------------------------------|
|--------------------------------------------------------------------|
|--------------------------------------------------------------------|
|--------------------------------------------------------------------|
|--------------------------------------------------------------------|
|-3-2-0-1-0-0-0-0--3-2-0-1-0-0-0-0--3-2-0-1-0-0-0-0--3-2-0-1-0-0-0-0-|
  . . . . . . . .  . . . . . . . .  . . . . . . . .  . . . . . . . .

|-------------|
|-------------|
|-------------|
|-------------|
|-5--4--3--2--|
|-3--2--1--0--|


Riff 7
|------------------|
|------------------|
|------------------|
|------------------|
|-5-4-3-2--5-4-3-2-|

|---------------------------------------------------------------------------|
|---------------------------------------------------------------------------|
|---------------------------------------------------------------------------|
|---------------------------------------------------------------------------|
|-5-4-2-3-2------5-4-2-3-2------5-4-2-3-2------5-4-2-3-2------5-4-2-3-2-----|
|-3-2-0-1-0--00--3-2-0-1-0--00--3-2-0-1-0--00--3-2-0-1-0--00--3-2-0-1-0--00-|
             ..             ..             ..             ..             ..
|---------------------------------------------------------------------------|
|---------------------------------------------------------------------------|
|---------------------------------------------------------------------------|
|---------------------------------------------------------------------------|
|-5-4-2-3-2------5-4-2-3-2------5-4-2-3-2------5-4-2-3-2------5-4-2-3-2-----|
|-3-2-0-1-0--00--3-2-0-1-0--00--3-2-0-1-0--00--3-2-0-1-0--00--3-2-0-1-0--00-|
             ..             ..             ..             ..             ..

Riff 8 (Outro)

|-----------------------------------------------|
|-----------------------------------------------|
|-----------------------------------------------|
|-----------------------------------------------|
|-2~~-2-8-2~~8-2~~8-2~~8-2~~8-2~~8-2~~8-0~~8-2~~|
|-0~~-0-6-0~~6-0~~6-0~~6-0~~6-0~~6-0~~6-2~~6-0~~|

|---------------------|
|---------------------|
|---------------------|
|---------------------|
|-2~~-2~~-2~~-2~~-2~~-|
|-0~~-0~~-0~~-0~~-0~~-|

END

  Visit MetalTabs.com for more metal tablature

bottom separator

Contact Us | Privacy Policy | Disclaimer | Legal Notice
Copyright © 2001-2014 MetalTabs.com. All Rights Reserved.