top separator

Home

Forum

What's New

Submit a Tab

FAQ

Links

Contact Us

Link to Us

MetalTabs.com logo

Bands

0-9

A

B

C

D

E

F

G

H

I

J

K

L

M

N

O

P

Q

R

S

T

U

V

W

X

Y

Z

Search

What

Where
 

Enthroned - "Deny the holy book of lies" Guitar Tab

Plain Text Version
More Enthroned Tabs

Hits: 1678
Rated: 2.00 out of 5 (1 vote)
Updated: 2006-08-17 05:14:59

 

By:

sendpm.gif

email.gif

Important note
This tab is available online because we obtained explicit permission from Enthroned or their label.


#----------------------------------PLEASE NOTE---------------------------------#
#This file is the author's own work and represents their interpretation of the #
#song. You may only use this file for private study, scholarship, or research. #
#Unless specified otherwise, this is NOT an official tab from the band members.#
#------------------------------------------------------------------------------#

  Visit MetalTabs.com for more metal tablature
  
Band: Enthroned
Album: Prophecies of Pagan Fire
Song: Deny the Holy Book of Lies
Copyright (c)  Osmose (1995)
Version 1.0 - 2006-7-16

Transcribed By: Benjamin Gheysels
Email:          benjamingheysels@hotmail.com


.  - palm mute           /  - slide up to
\  - slide down to       ~  - vibrato
h  - hammer on           b  - Bend
p  - pull off            Suffixes for bend
t  - tap                 f  - full bend    h - half bend
ph - pinched harmonic    q  - quarter bend t - tap bend
*  - see comment         ^  - Hold bend    r release bend
x  - Stuccatto           ~  - vibrato bend
,  - slight palm mute    () - ghost note, sustained note
"  - tremolo note        <> - Trill
ps - pick scrape

Tuning E A D G B E

Riff 1: repeat till 2'22"
|----------------------------------------------------------------|
|----------------------------------------------------------------|
|----------------------------------------------------------------|
|----------10-------------10-------------11--------------11------|
|---7-------8-------7------8-------8------9-------8-------9------|
|---5---------------5--------------6--------------6--------------|

Riff 2: play the first chord only the first time. Play 8 times.
        The last time, don't play the final chord.
|---------------------------------|
|---------------------------------|
|---------------------------------|
|---9--10--9--7-----5\4/5-2-------|
|---7---8--7--5-----3\2/3-2-------|
|-------------------------0-------|

Riff 3: play 4 times
|-----------------------|
|-----------------------|
|-----------------------|
|---5-----7----10--9----|
|---3-----5-----8--7----|
|-----------------------|

Riff 2: play 2 times. Don't play the first chord!

Riff 3: play 4 times

Riff 4: play 8 times. The other guitar/bass plays the chords
    E                                     C             B
|--------------------------------------------------------------------|
|--------------------------------------------------------------------|
|--------------------------------------------------------------------|
|---9-10-9-----9-12-10-9---------------------------------------------|
|------------------------12-10-9----9-----10-11-10------9-10-9-------|
|--------------------------------12----------------------------7-----|

Riff 5: play 8 times
|--------------------------------------------|
|--------------------------------------------|
|--------------------------------------------|
|---2-----------5--7--4----------------------|
|---2-----5-----3--5--2-----7--5--4--5--7----|
|---0-----3-----------------5--3--2--3--5----|

Riff 6: play this riff as background for the solo (4 times)
        and then again 4 times with lyrics
|--------------------------------------|
|--------------------------------------|
|--------------------------------------|
|---9-10--9--7--4--5--9-10--9--7-10----|
|---7--8--7--5--2--3--7--8--7--5--8----|
|--------------------------------------|

end with
|---------|
|---------|
|---------|
|---9-----|
|---7-----|
|---------|


That's it! Enjoy!

  Visit MetalTabs.com for more metal tablature

bottom separator

Contact Us | Privacy Policy | Disclaimer | Legal Notice
Copyright © 2001-2014 MetalTabs.com. All Rights Reserved.