top separator

Home

Forum

What's New

Submit a Tab

FAQ

Links

Contact Us

Link to Us

MuSpy.com

MetalTabs.com logo

Bands

0-9

A

B

C

D

E

F

G

H

I

J

K

L

M

N

O

P

Q

R

S

T

U

V

W

X

Y

Z

Search

What

Where
 

Burzum - "War" Bass Tab

Plain Text Version
More Burzum Tabs

Hits: 5164
Rated: 1.09 out of 5 (45 votes)
Updated: 2006-08-17 04:51:57

 

By:

sendpm.gif

email.gif

Important note
This tab is available online because we obtained explicit permission from Burzum or their label.


#----------------------------------PLEASE NOTE---------------------------------#
#This file is the author's own work and represents their interpretation of the #
#song. You may only use this file for private study, scholarship, or research. #
#Unless specified otherwise, this is NOT an official tab from the band members.#
#------------------------------------------------------------------------------#

  Visit MetalTabs.com for more metal tablature
  
Artist: Burzum
Song: War
Album: Burzum/Aske
1994 Mysanthropy
Bass tablature: Narciso (Pt)
Email:Flyingsoul@darksites.com

Riff 1
|-0-0-0-0-0-0-0-6-0-0-0-0-0-0-0-3-5-0-0-0-0-0-0-0-6-0-0-0-0-0-0-0-2-3-|
|---------------------------------------------------------------------|
|---------------------------------------------------------------------|
|---------------------------------------------------------------------|

Riff 2
|-0-0-0-0-0-0-0-6-|
|-----------------|
|-----------------|
|-----------------|

Riff 3
|-3-0-2-0-0-3-3-3-2-2-0-0-0-|
|---------------------------|
|---------------------------|
|---------------------------|

Riff 4
|-3-0-0-2-3-|
|-----------|
|-----------|
|-----------|

Riff 1 6x (00:10)
Riff 2 1x (01:17)
Riff 1 3x (01:31)
Riff 3 7x (02:04)
Riff 4 1x (02:23)

  Visit MetalTabs.com for more metal tablature

bottom separator

Contact Us | Privacy Policy | Disclaimer | Legal Notice
Copyright © 2001-2014 MetalTabs.com. All Rights Reserved.