top separator

Home

Forum

What's New

Submit a Tab

FAQ

Links

Contact Us

Link to Us

MetalTabs.com logo

Bands

0-9

A

B

C

D

E

F

G

H

I

J

K

L

M

N

O

P

Q

R

S

T

U

V

W

X

Y

Z

Search

What

Where
 

Celtic Frost - "Necromantical Screams" Guitar Tab

Plain Text Version
More Celtic Frost Tabs

Hits: 4687
Rated: 4.60 out of 5 (5 votes)
Updated: 2006-08-17 04:47:42

 

By:

Sycophant

sendpm.gif

email.gif

Important note
This tab is available online because we obtained explicit permission from Celtic Frost or their label.


#----------------------------------PLEASE NOTE---------------------------------#
#This file is the author's own work and represents their interpretation of the #
#song. You may only use this file for private study, scholarship, or research. #
#Unless specified otherwise, this is NOT an official tab from the band members.#
#------------------------------------------------------------------------------#

  Visit MetalTabs.com for more metal tablature
  
Author/Artist: Celtic Frost
Title: Necromantical Screams
Album: To Mega Therion [1985 Noise Records]
Transcribed by: Greg D. [Sycophant]
Email: sentience666@hotmail.com

Tune To E.

---------|------------------|-------------------------------------------------
---------|------------------|-------------------------------------------------
---------|------------------|-------------------------------------------------
-x/----\-|---------------3--|-------------------------2--6-----5--------------
-x/----\-|-----------3-2----|-2--2--2-----2--2--2--2--0--4--6--3--5--6--------
-x/-14-\-|-0-0-0-0-2--------|-0--0--0--0--0--0--0--0--------4-----3--4--------
           0:01 - 0:07   x4   0:07 - 0: 29                             x4

-----------------------------------------|------------------------------------
-----------------------------------------|------------------------------------
-----------------------4----5---\2-------|------------------------------------
-2-3------4------------2----3---\0-------|-2----------------------------------
-0-1------2------------------------------|-0--------6------/9----10--\4-------
-----------------------------------------|----------4------/7----8---\2-------
 0:29 - 0:55                         x4    0:55 - 1:23                     x4

------------------------------------------------------------------------------
------------------------------------------------------------------------------
------------------------------------------------------------------------------
------------------------------------------------------------------------------
------------------------------------------------------------------------------
--0--0-0-0-0-0--0-0-0-0-0--0-0-0-0-0--0-0-0-0-7-7-7-7-7-7-7-7-7-7-7-7-7-6-6-6-
 1:23 - 1:50  Guitar 1

------------------------------------------------------------------------------
------------------------------------------------------------------------------
------------------------------------------------------------------------------
------------------------------------------------------------------------------
------------------------------------------------------------------------------
--6-6-6-6-6-6-6-6-6-6-0-0-0-0-0-0-0-0-0-0-0-0-0-0-0-0-0-0-0-0-0-0-0-0-0-7-7---


------------------------------------------------------------------------------
------------------------------------------------------------------------------
------------------------------------------------------------------------------
------------------------------------------------------------------------------
------------------------------------------------------------------------------
-7-7-7-7-7-7-7-7-7-7-6-6-6-6-6-6-6-6-6-6-6-6----------------------------------
                                             x2

------------------------------------------------------------------------------
------------------------------------------------------------------------------
------------------------------------------------------------------------------
-----------------4---4---4---4---4---4---3---3---3---3---3---3----------------
-------------------2---2---2---2---2---2---1---1---1---1---1---1--------------
------------------------------------------------------------------------------
 1:23 - 1:50 Guitar II with clean flange effect on it.

------------------------------------------------------------------------------
------------------------------------------------------------------------------
---------------4----5-----------------------------4----5----------------------
-3--------3----4----5----------------3-------3----4----5----------------------
-3--------3----2----3----------------3-------3----2----3----------------------
-1--------1--------------------------1-------1--------------------------------
 1:50 - 2:17                                                           x2

----------------------------|-------------------------|-----------------------
----------------------------|-------------------------|-----------------------
----------------------------|-------------------------|-----------------------
----------------------------|6--5-----5-4-----4-3-----|-----------------------
------2-1--------2-3---3-4--|-----6-5-----5-4-----4-3-|-------------------\---
-1--------2-1---------------|-------------------------|-----------------------
                                               end1,3   end 2,4 - hold note

-------------------------------------------------|----------------------------
-------------------------------------------------|----------------------------
-------------------------------------------------|----------------------------
-------------------------------------------------|----------------------------
-8-8-8-8-8-8-8-8-8-8-6-7-8-8-8-8-8-8-8-8-8-8-6-7-|-8-8-8-8-8-8-8-8-8-8-7-8----
-6-6-6-6-6-6-6-6-6-6-4-5-6-6-6-6-6-6-6-6-6-6-4-5-|-6-6-6-6-6-6-6-6-6-6-5-6----
 4:06 - 4:13                                 x1.5  4:13 - 4:16

--------------------------------------------|---------------------------------
--------------------------------------------|---------------------------------
--------------------------------------------|---------------------------------
--------------------------------------------|------------------------7-----6--
-6---6-6-6-6---6-6-7-8-6---6-6-6-6--6-6-7-8-|------------7-----6--------------
-4---4-4-4-4---4-4-5-6-4---4-4-4-4--4-4-5-6-|-7----6--------------------------
 4:16 - 4:24                             x4   4:33 - 4:42

-----------------------------|------------------------------------------------
-----------------------------|-----------------/\-----------------------------
-----------------------------|----------------/--\----------------------------
-----7-6---6-----------------|-6--------\----/----\----/\---------------------
---------7---7-6-7-6---6-----|-4---------\--/------\--/--\--------------------
---------------------7---7-6-|------------\/--------\/----\-------------------
                               5:38 - End is just a bunch of bar feedback

  Visit MetalTabs.com for more metal tablature

bottom separator

Contact Us | Privacy Policy | Disclaimer | Legal Notice
Copyright © 2001-2014 MetalTabs.com. All Rights Reserved.