top separator

Home

Forum

What's New

Submit a Tab

FAQ

Links

Contact Us

Link to Us

MuSpy.com

MetalTabs.com logo

Bands

0-9

A

B

C

D

E

F

G

H

I

J

K

L

M

N

O

P

Q

R

S

T

U

V

W

X

Y

Z

Search

What

Where
 

Darkthrone - "Shut Up" Guitar Tab

Plain Text Version
More Darkthrone Tabs

Hits: 2691
Updated: 2006-08-17 04:19:58

 

By:

wilk

sendpm.gif

email.gif

Important note
This tab is available online because we obtained explicit permission from Darkthrone or their label.


#----------------------------------PLEASE NOTE---------------------------------#
#This file is the author's own work and represents their interpretation of the #
#song. You may only use this file for private study, scholarship, or research. #
#Unless specified otherwise, this is NOT an official tab from the band members.#
#------------------------------------------------------------------------------#

  Visit MetalTabs.com for more metal tablature
  
Band:  Darkthrone
Album:  The Cult Is Alive
Song:  Shut Up

Copyright (c)  Peaceville 2006

Transcribed By: wilk
Email:          wilknoctis@interia.pl


.  - palm mute           /  - slide up to
\  - slide down to       ~  - vibrato
h  - hammer on           b  - Bend
p  - pull off            Suffixes for bend
t  - tap                 f  - full bend    h - half bend
ph - pinched harmonic    q  - quarter bend t - tap bend
*  - see comment         ^  - Hold bend    r release bend
x  - Stuccatto           ~  - vibrato bend
,  - slight palm mute    () - ghost note, sustained note
"  - tremolo note        <> - Trill

Tuning E A D G B E

Riff 1
|------------------------------------------|---------|--------------|
|------------------------------------------|--first--|-second-------|
|------------------------------------------|--time---|--time--------|
|------------------------------------------|---------|--------------|
|-6-7-8--6-7-8--3-------6-7-8--7-8-9--8----|-10--11--|---10---------|
|-4-5-6--4-5-6--1-------4-5-6--5-6-7--6----|--8---9--|----8---------|

Riff 2
|-------------------------------------------------------------------|
|-------------------------------------------------------------------|
|-------------------------------------------------------------------|
|-------------------8~----------------------------------------------|
|-6--------7--------6~----4~----------------------------------------|
|-4--------5--------------2~----------------------------------------|

Riff 3
|-------------------------------------------------------------------|
|-------------------------------------------------------------------|
|-------------------------------------------------------------------|
|----------5---5~----------------5---5~-----------------------------|
|-5--------3---3~--6---5---------3---3~--6/5------------------------|
|-3----------------4---3-----------------4/3------------------------|

Riff 4
|-------------------------------------------------------------------|
|-------------------------------------------------------------------|
|-------------------------------------------------------------------|
|-----------------------10--9-------10--9---------------------------|
|-2--2/3-3---2--2/3-3----8--7--------8--7----10--9------------------|
|-0--0/1-1---0--0/1-1-------------------------8--7------------------|

Riff 5
|-------------------------------------------------------------------|
|-------------------------------------------------------------------|
|-------------------------------------------------------------------|
|-------------------------------------------------------------------|
|-7-----8-----7-----6-----7-----8-----5--5--5--5--5--5--5--5--------|
|-5-----6-----5-----4-----5-----6-----3--3--3--3--3--3--3--3--------|

Riff6
|-------------------------------------------------------------------|
|-------------------------------------------------------------------|
|-------------------------------------------------------------------|
|----------5----------------5---5~----------------------------------|
|-5--------3--------5-------3---3~--6666----------------------------|
|-3-----------------3---------------4444----------------------------|

End
|-------------------------------------------------------------------|
|-------------------------------------------------------------------|
|-let-ring----------------------------------------------------------|
|-------------------------------------------------------------------|
|-5-----------------------------------------------------------------|
|-3-----------------------------------------------------------------|

it goes like this:

Riff1 x2
Riff2 x4
Riff3 x4
Riff2 x4
Riff3 x2
Riff1 x2
Riff4 x2
Riff5 x2
Riff4 x2
Riff5 x2
Riff4 x2
Riff5 x2
Riff6 x8
End

END

  Visit MetalTabs.com for more metal tablature

bottom separator

Contact Us | Privacy Policy | Disclaimer | Legal Notice
Copyright © 2001-2014 MetalTabs.com. All Rights Reserved.