top separator

Home

Forum

What's New

Submit a Tab

FAQ

Links

Contact Us

Link to Us

MetalTabs.com logo

Bands

0-9

A

B

C

D

E

F

G

H

I

J

K

L

M

N

O

P

Q

R

S

T

U

V

W

X

Y

Z

Search

What

Where
 

Darkthrone - "Graveyard Slut" Guitar Tab

Plain Text Version
More Darkthrone Tabs

Hits: 5479
Rated: 5.00 out of 5 (1 vote)
Updated: 2006-08-17 04:18:26

 

By:

wilk

sendpm.gif

email.gif

Important note
This tab is available online because we obtained explicit permission from Darkthrone or their label.


#----------------------------------PLEASE NOTE---------------------------------#
#This file is the author's own work and represents their interpretation of the #
#song. You may only use this file for private study, scholarship, or research. #
#Unless specified otherwise, this is NOT an official tab from the band members.#
#------------------------------------------------------------------------------#

  Visit MetalTabs.com for more metal tablature
  
Band:  Darkthrone
Album: The Cult Is Alive
Song:  Graveyard Slut

Copyright (c)  Peaceville 2006

Transcribed By: wilk
Email:          wilknoctis@interia.pl


.  - palm mute           /  - slide up to
\  - slide down to       ~  - vibrato
h  - hammer on           b  - Bend
p  - pull off            Suffixes for bend
t  - tap                 f  - full bend    h - half bend
ph - pinched harmonic    q  - quarter bend t - tap bend
*  - see comment         ^  - Hold bend    r release bend
x  - Stuccatto           ~  - vibrato bend
,  - slight palm mute    () - ghost note, sustained note
"  - tremolo note        <> - Trill

Tuning E A D G B E

Riff 1
|-------------------------------------------------------------------|
|-------------------------------------------------------------------|
|-------------------------------------------------------------------|
|-6-66-66-6-66-66-9----------------4--------------------------------|
|-4-44-44-4-44-44-7---10----5------2--------------------------------|
|----------------------8----3---------------------------------------|

Riff 2
|-------------------------------------------------------------------|
|-------------------------------------------------------------------|
|-------------------------------6-----------------------------------|
|-----------------------------4-6-4---------------------------------|
|-6-66-66-6-66-66-------------4-4-4---------------------------------|
|-4-44-44-4-44-44-8^----------2---2---------------------------------|

Riff 3
|-------------------------------------------------------------------|
|-------------------------------------------------------------------|
|-------------------------------------------------------------------|
|-------------------------------------------------------------------|
|-3-33-33-3-33-33-3/4-5/4-3-3-2-22-22-------------------------------|
|-1-11-11-1-11-11-1/2-3/2-1-1-0-00-00-------------------------------|

3-4
|-------------------------------------------------------------------|
|-------------------------------------------------------------------|
|-let-ring----------------------------------------------------------|
|-------------------------------------------------------------------|
|-2-----------------------------------------------------------------|
|-0-----------------------------------------------------------------|

Riff 4
|-------------------------------------------------------------------|
|-------------------------------------------------------------------|
|-------------------------------------------------------------------|
|-88888888----------------------------------------------------------|
|-66666666666666657777777466666-5-----------------------------------|
|---------444444435555555244444-3-----------------------------------|

End
|-------------------------------------------------------------------|
|-------------------------------------------------------------------|
|-------------------------------------------------------------------|
|-4~------3~-----2~-------------------------------------------------|
|-4~------3~-----2~-------------------------------------------------|
|-2~------1~-----0~-------------------------------------------------|

it goes like this:

Riff1 x6
Riff2 x4
Riff3 x4
Riff1 x4
Riff2 x4
Riff3 x4
3-4
Riff4 x6
Riff1 x5
Riff2 x4
End

END

  Visit MetalTabs.com for more metal tablature

bottom separator

Contact Us | Privacy Policy | Disclaimer | Legal Notice
Copyright © 2001-2014 MetalTabs.com. All Rights Reserved.