top separator

Home

Forum

What's New

Submit a Tab

FAQ

Links

Contact Us

Link to Us

MuSpy.com

MetalTabs.com logo

Bands

0-9

A

B

C

D

E

F

G

H

I

J

K

L

M

N

O

P

Q

R

S

T

U

V

W

X

Y

Z

Search

What

Where
 

Darkthrone - "Forebyggende Krig" Guitar Tab

Plain Text Version
More Darkthrone Tabs

Hits: 3274
Updated: 2006-08-17 04:17:51

 

By:

wilk

sendpm.gif

email.gif

Important note
This tab is available online because we obtained explicit permission from Darkthrone or their label.


#----------------------------------PLEASE NOTE---------------------------------#
#This file is the author's own work and represents their interpretation of the #
#song. You may only use this file for private study, scholarship, or research. #
#Unless specified otherwise, this is NOT an official tab from the band members.#
#------------------------------------------------------------------------------#

  Visit MetalTabs.com for more metal tablature
  
Band:  Darkthrone
Album: The Cult Is Alive
Song:  Forebyggende Krig

Copyright (c)  Peaceville 2006

Transcribed By: wilk
Email:          wilknoctis@interia.pl


.  - palm mute           /  - slide up to
\  - slide down to       ~  - vibrato
h  - hammer on           b  - Bend
p  - pull off            Suffixes for bend
t  - tap                 f  - full bend    h - half bend
ph - pinched harmonic    q  - quarter bend t - tap bend
*  - see comment         ^  - Hold bend    r release bend
x  - Stuccatto           ~  - vibrato bend
,  - slight palm mute    () - ghost note, sustained note
"  - tremolo note        <> - Trill

Tuning E A D G B E

Begining
|-------------------------------------------------------------------|
|-------------------------------------------------------------------|
|--guitar1------------------guitar2---------------------------------|
|-------------------------------------------------------------------|
|-7-8-9-8-7----------------7-8-9-8-7--------------------------------|
|-5-6-7-6-5----------------5-6-7-6-5--------------------------------|

Riff 1
|-------------------------------------------------------------------|
|-------------------------------------------------------------------|
|-------------------------------------------------------------------|
|------------8--8--8/7----------------------------------------------|
|-7-8-9-8-7--6--6--6/5-----7-8-9-8-7--3--3--3-2---------------------|
|-5-6-7-6-5----------------5-6-7-6-5--1--1--1-0---------------------|

1-2
|-------------------------------------------------------------------|
|-------------------------------------------------------------------|
|-------------------------------------------------------------------|
|-------------------------------------------------------------------|
|-8--2--7-6---------------------------------------------------------|
|-6--0--5-4---------------------------------------------------------|

Riff 2
|-------------------------------------------------------------------|
|-------------------------------------------------------------------|
|----------------------------------------------------forth-time-----|
|-------------------------------------------------------------------|
|-8--2--2--2--2--2--2--2--2--2--2--8--2--7-6---------2--2--2--2-----|
|-6--0--0--0--0--0--0--0--0--0--0--6--0--5-4---------0--0--0--0-----|

Riff 3
|-------------------------------------------------------------------|
|-------------------------------------------------------------------|
|-------------------------------------------------------------------|
|-------------------------------------------------------------------|
|-3-3-3-4------3-3-3-4--------3-3-3-4-------3-3-3-4-----------------|
|-1-1-1-2------1-1-1-2--------1-1-1-2-------1-1-1-2-----------------|

Riff 4(with solo)
|-------------------------------------------------------------------|
|-------------------------------------------------------------------|
|-------------------------------------------------------------------|
|-------------------------------------------8888888888888888--------|
|-6666666666666666666666666662222222222222226666666666666666--------|
|-444444444444444444444444444000000000000000------------------------|

it goes like this:

Begining x2
Riff1 x4
1-2
Riff2 x4
Riff1 x4
1-2
Riff2 x4
Riff3
Riff4 till end

END

  Visit MetalTabs.com for more metal tablature

bottom separator

Contact Us | Privacy Policy | Disclaimer | Legal Notice
Copyright © 2001-2014 MetalTabs.com. All Rights Reserved.