top separator

Home

Forum

What's New

Submit a Tab

FAQ

Links

Contact Us

Link to Us

MuSpy.com

MetalTabs.com logo

Bands

0-9

A

B

C

D

E

F

G

H

I

J

K

L

M

N

O

P

Q

R

S

T

U

V

W

X

Y

Z

Search

What

Where
 

Fleshgrind - "Pistolwhipped" Guitar Tab

Plain Text Version
More Fleshgrind Tabs

Hits: 1967
Rated: 2.00 out of 5 (1 vote)
Updated: 2006-08-17 04:08:59

 

By:

Infinity

sendpm.gif

email.gif

Important note
This tab is available online because we obtained explicit permission from Fleshgrind or their label.


#----------------------------------PLEASE NOTE---------------------------------#
#This file is the author's own work and represents their interpretation of the #
#song. You may only use this file for private study, scholarship, or research. #
#Unless specified otherwise, this is NOT an official tab from the band members.#
#------------------------------------------------------------------------------#

  Visit MetalTabs.com for more metal tablature
  
Band: Fleshgrind
Album: Murder Without End
Song: Pistolwhipped

Copyright (c)  (Olympic) (2003)

Transcribed By: (Milo/Infinity)
Email:          (Myles_merritt@yahoo.com)


.  - palm mute           /  - slide up to
\  - slide down to       ~  - vibrato
h  - hammer on           b  - Bend
p  - pull off            Suffixes for bend
t  - tap                 f  - full bend    h - half bend
ph - pinched harmonic    q  - quarter bend t - tap bend
*  - see comment         ^  - Hold bend    r release bend
x  - Stuccatto           ~  - vibrato bend
,  - slight palm mute    () - ghost note, sustained note
"  - tremolo note        <> - Trill


B STANDARD

Fill 1 0.00
|--------------|
|--------------|
|--------------|
|--------------|
|-...-5--...-4-|
|-000-3--000-2-|



Riff 1 Verse 1 0.01
|-----------------|
|-----------------|
|-----------------|
|-.-.-.-.-.-.-.-.-|
|-3-2-5-4-5-4-8-7-|
|-1-0-3-2-3-2-6-5-|



Harmony 1 triple picked 0.03
|---------------------------------|------------------|
|---------------------------------|------------------|
|-------------------------5-5-4-4-|------------------|
|---------5-5-4-4-7-7-5-5---------|----------5-5-4-4-|
|-7-7-6-6-------------------------|--7-7-6-6---------|
|---------------------------------|------------------|
|
|---------------------------------|------------------|
|-------------------------6-6-5-5-|------------------|
|---------5-5-4-4-7-7-5-5---------|----------5-5-4-4-|
|-7-7-6-6-------------------------|--7-7-6-6---------|
|---------------------------------|------------------|
|---------------------------------|------------------|



Repeat Fill 1

Repeat Riff 1

Repeat Harmony

Repeat Fill 1

Repeat Riff 1 four times



Harmony 2, play twice 0.22
|---------------------------------|---------------------------------|
|---------------------------------|---------------------------------|
|-------------------------5-5-4-4-|-4-4-5-5-----4-4-----------------|
|---------5-5-4-4-7-7-5-5---------|---------7-7-----5-5-7-7-4-4-5-5-|
|-7-7-6-6-------------------------|---------------------------------|
|---------------------------------|---------------------------------|
|
|---------------------------------|---------------------------------|
|-------------------------6-6-5-5-|-5-5-6-6-----5-5-----------------|
|---------5-5-4-4-7-7-5-5---------|---------7-7-----5-5-7-7-4-4-5-5-|
|-7-7-6-6-------------------------|---------------------------------|
|---------------------------------|---------------------------------|
|---------------------------------|---------------------------------|




Verse 4
|-----------------|---------------------|
|-----------------|---------------------|
|-----------------|---------------------|
|-.-.-.-.-.-.-.-.-|-.-.-.-.-------------|
|-3-2-5-4-5-4-8-7-|-3-2-5-4-...-5-...-4-|
|-1-0-3-2-3-2-6-5-|-1-0-3-2-000-3-000-2-|



"You know that you are gonna die!" end verse fill 0.44
|---------------------------|
|---------------------------|
|---------------------------|
|----------------------.--.-|
|-...-5--...-4--...-5--4--4-|
|-000-3--000-2--000-3--2--2-|



Verse 5 0.46
|---------------------------------|
|---------------------------------|
|---------------------------------|
|---------------------------------|
|-5\4-...-5\4-...-5\4-...-5\4-...-|
|-3\2-000-3\2-000-3\2-000-3\2-000-|
Continued
|---------------------|
|---------------------|
|---------------------|
|---------------------|
|---------------------|
|-2222-6222-5222-6222-|



Repeat Harmony 2



"You're Pistolwhipped!" Riff [ 2 guitars tabbed here, palm mute chops]
|----------------------------|-----------------|
|----------------------------|-----------------|
|----------------------------|-10-9-7-9--------|
|---------10-10-9-10-9-9-9-9-|-10-9-7-9-9-10-9-|
|-7-7-7-7--------------------|----------9-10-9-|
|----------------------------|-----------------|
Continued
|---------------------------------------------|
|---------------------------------------------|
|---------------------------------------------|
|---------------------------------------------|
|-7-7-7-7-10-10-9-10-9-9-9-9-10-10-9-10-10-10-|
|---------------------------------------------|
Continued
2 guitars tabbed aswell here [ 2 guitars tabbed here, palm mute chops]
|----------------------------|-----------------|
|----------------------------|-----------------|
|---------10-10-9-10-7-7-7-7-|-10-9-7-9--------|
|-5-5-5-5-10-10-9-10-9-9-9-9-|-10-9-7-9-9-10-9-|
|-7-7-7-7--------------------|----------9-10-9-|
|----------------------------|-----------------|
Continued
|--------------------------------------|
|--------------------------------------|
|--------------------------------------|
|---------------7-7--------------------|
|-7-7-7-7-10-10-----9-9-9-9-10-10-9-10-|
|--------------------------------------|



Bridge chugging riff 1.26
|---------------------------|
|---------------------------|
|---------------------------|
|---------------------------|
|-7-6-7-.-.-.-7-6-7-10-9-10-|
|-7-6-7-0-0-0-7-6-7-10-9-10-|

After bridge repeat song from start. Sweet and sick song!!!

  Visit MetalTabs.com for more metal tablature

bottom separator

Contact Us | Privacy Policy | Disclaimer | Legal Notice
Copyright © 2001-2014 MetalTabs.com. All Rights Reserved.