top separator

Home

Forum

FAQ

Contact Us

Link to Us

MetalTabs.com logo

Bands

0-9

A

B

C

D

E

F

G

H

I

J

K

L

M

N

O

P

Q

R

S

T

U

V

W

X

Y

Z

Cannibal Corpse - "Meat Hook Sodomy" Guitar Tab

Plain Text Version
More Cannibal Corpse Tabs

Hits: 1903
Rated: 5.00 out of 5 (2 votes)
Updated: 2006-08-17 03:51:48

By:

Snake666


#----------------------------------PLEASE NOTE---------------------------------#
#This file is the author's own work and represents their interpretation of the #
#song. You may only use this file for private study, scholarship, or research. #
#Unless specified otherwise, this is NOT an official tab from the band members.#
#------------------------------------------------------------------------------#

  Visit MetalTabs.com for more metal tablature
  
Band:  CANNIBAL CORPSE
Album: BUTCHERED AT BIRTH
Song:  MEAT HOOK SODOMY

Copyright (c)  METAL BLADE RECORDS 1991
Version 1.0  JULY 2006

Transcribed By: Snake666
Email:          pablo_cor666@hotmail.com

Send questions, comments, corrections to the email above

.  - palm mute           /  - slide up to
\  - slide down to       ~  - vibrato
h  - hammer on           b  - Bend
p  - pull off            Suffixes for bend
t  - tap                 f  - full bend    h - half bend
ph - pinched harmonic    q  - quarter bend t - tap bend
*  - see comment         ^  - Hold bend    r release bend
x  - Stuccatto           ~  - vibrato bend
,  - slight palm mute    () - ghost note, sustained note
"  - tremolo note        <> - Trill

Tuning Eb Ab Db Gb Bb Eb


Riff 1
|------------------------------------------------|
|------------------------------------------------|
|------------------------------------------------|
|------------------------------------------------|
|-6_7_6-----9_10_9-----8_9_8-----10_11_10--11_12-|
|--h-p---0---h--p---0---h-p---0----h--p------h---|

Riff 2
|--------------------------------|
|--------------------------------|
|--------------------------------|
|--------------------------------|
|--3-----5-----4-----------------|
|--1--0--3--0--2--0--3_4_3--4_5--|
                      h p    h

Riff 3
|---------------------------------|
|---------------------------------|
|---------------------------------|
|-3-------5-------3-------4/5-3/4-|
|-3-------5-------3-------4/5-3/4-|
|-1-0-0-0-3-0-0-0-1-0-0-0-2/3-1/2-|
    . . .   . . .   . . .

Riff 4
|---------------------------------|
|---------------------------------|
|---------------------------------|
|---------------------------------|
|---9-6-----8-5-----7-4-----6-3---|
|-0-7-4-0-0-6-3-0-0-5-2-0-0-4-1-0-|
  . . . . . . . . . . . . . . . .

Riff 5
|----------------------------------|
|----------------------------------|
|----------------------------------|
|----------------------------------|
|----------------------------------|
|-33336666000033332222555511114444-|

|----------------------------------|
|----------------------------------|
|----------------------------------|
|----------------------------------|
|----------------------------------|
|-33336666000033331111444422225555-|

Riff 6
|------------------------------------------------------------------|
|------------------------------------------------------------------|
|------------------------------------------------------------------|
|------------------------------------------------------------------|
|------------------------------------------------------------------|
|-3333333366666666000000003333333322222222555555551111111144444444-|

|------------------------------------------------------------------|
|------------------------------------------------------------------|
|------------------------------------------------------------------|
|------------------------------------------------------------------|
|------------------------------------------------------------------|
|-3333333366666666000000003333333311111111444444442222222255555555-|

Riff 7
|------------------|
|------------------|
|------------------|
|------------------|
|------------------|
|-3366003322551144-|

|------------------|
|------------------|
|------------------|
|------------------|
|------------------|
|-3366003311442255-|

Riff 8
|-----------------------------------|
|-----------------------------------|
|-----------------------------------|
|-----------------------------------|
|--2222-----------------------------|
|--0000----6---5---3---2_3_2_3_2_3--|
   ....                 h p h p h

Riff 9
|---------------------------------------------------------|
|---------------------------------------------------------|
|---------------------------------------------------------|
|--------------------------------------------------3------|
|--543---543---------432---432---------321---321---3------|
|--------------543---------------432---------------1------|
   ...   ...   ...   ...   ...   ...   ...   ...

Riff 10
|---------------------------------------------------------|
|---------------------------------------------------------|
|---------------------------------------------------------|
|--7-----------------6-----------------------------3------|
|--5-----------------4-----------------------------3------|
|--5-----------------4-----------------321---321---1------|
                                       ...   ...

Riff 11
|--------------------------------------------------------|
|--------------------------------------------------------|
|--------------------------------------------------------|
|-------------------------------------------------3------|
|-------------------------------------------------3------|
|-000---000---000---000---000---000---000---000---1------|
  ...   ...   ...   ...   ...   ...   ...   ...

Fill
|-----------------|
|-----------------|
|-----------------|
|-(3)-------------|
|-(3)-------------|
|-(1)-------------|

Riff 12
|-----------------------------------------|
|-----------------------------------------|
|-----------------------------------------|
|--------------------------------------4--| (Gtr 1)
|--------------------------4-------4-7----|
|--5555556644444455333333442--------------|
                           .       . .

|-----------------------------------------|
|-----------------------------------------|
|-----------------------------------------|
|-(3)----------------------------------4--| (Gtr 2)
|-(3)----------------------4-------4-7----|
|-(1)----------------------2--------------|
                           .       . .


Riff 13
|---------------------------------|
|---------------------------------|
|---------------------------------|
|-------------------------------4-|
|---------------------------4-7---|
|-5555556644444455333333442-------|
                            . .

Riff 14
|-----------------------------------|
|-----------------------------------|
|-----------------------------------|
|-----------------------------------|
|--2222-----------------------------|
|--0000----8---7---5---4_5_4_5_4_5--|
   ....                 h p h p h

Riff 15
|--------------------------------|-------------------------------------|
|--------------------------------|-------------------------------------|
|--------------------------------|-------------------------------------|
|--------------------------------|-------------------------------------|
|--3-----5-----4-----------------|--3-----5-----4-----10_11_10--11_12--|
|--1--0--3--0--2--0--3_4_3--3_5--|--1--0--3--0--2--0----h--p------h----|
                      h p    h

SONG STRUCTURE
Riffs are played by both guitars unless stated.

Riff 1   (x8)
Riff 2   (x8)
Riff 1   (x4)
Riff 3   (x4)
Riff 4   (x4)
Riff 3   (x4)
Riff 4   (x4)
Riff 1   (x8)
Riff 5   (x2)
Riff 6   (x1)
Riff 7   (x2)
Riff 8   (x8)
Riff 9   (x4) (Both Guitars)
Riff 10(Gtr 1) & Riff 9 (Gtr 2) (x4)
Riff 9 (Gtr 1) & Riff 11(Gtr 2) (x2)
Riff 10(Gtr 1) & Riff 11(Gtr 2) (x1)
Riff 10  (x1) (Both Guitars)
Riff 9   (x4) (Both Guitars)
Fill
Riff 12  (x1)
Riff 13  (x6)
Riff 7   (x2)
Riff 6   (x1)
Riff 14  (x4)
Riff 2   (x2)
Riff 1   (x2)
Riff 2   (x1)
Riff 1   (x1)
Riff 2   (x1)
Riff 1   (x1)
Riff 15  (x2)

END

  Visit MetalTabs.com for more metal tablature

bottom separator

Contact Us | Privacy Policy | Disclaimer
Copyright © 2001-2014 MetalTabs.com. All Rights Reserved.