top separator

Home

Forum

What's New

Submit a Tab

FAQ

Links

Contact Us

Link to Us

MuSpy.com

MetalTabs.com logo

Bands

0-9

A

B

C

D

E

F

G

H

I

J

K

L

M

N

O

P

Q

R

S

T

U

V

W

X

Y

Z

Search

What

Where
 

Pestilence - "Aurian Eyes" Bass Tab

Plain Text Version
More Pestilence Tabs

Hits: 2272
Rated: 3.00 out of 5 (1 vote)
Updated: 2006-08-17 03:44:55

 

By:

epitaph

sendpm.gif

email.gif

Important note
This tab is available online because we obtained explicit permission from Pestilence or their label.


#----------------------------------PLEASE NOTE---------------------------------#
#This file is the author's own work and represents their interpretation of the #
#song. You may only use this file for private study, scholarship, or research. #
#Unless specified otherwise, this is NOT an official tab from the band members.#
#------------------------------------------------------------------------------#

  Visit MetalTabs.com for more metal tablature
  
Band: Pestilence
Album: Spheres
Song: Aurian Eyes

Copyright (c)  Roadrunner Records 1993
Version 1.0 - 2th of June, 2006

Transcribed By: L. Nurminen
Email: Gaborik10@hotmail.com / Gaborik@welho.com

Tuning: EADG

I bet we all know this song was not played with bass. Well in fact, since
Pestilence did not use any keyboards on this album, it was played with a guitar
+ a weird-ass effect. But hey! Give me a break, and take a look at my
transcription. I also command you to listen to the song for more correct timing.
Cheers!

0:00
|----------------------7--6-4-7-------------------------------------|
|----5--4------7---6-4-----------8------------7--6-9-8------11-10---|
|------------------------------------6------5-----------9-8-------8-|
|-2-------5-4--------------------------7-4--------------------------|

0:21
|----------------------------------------------------------------------------|
|-----11-10-----------11------12--11------12--11-----12-11-12-13-------------|
|-8-7-------8--7-------------------------------------------------12----0-----|
|----------------8-7------9-8---------9-8--------9-8----------------13---3-2-|

0:38
|------------------------------8-7-----7-8-7-----7-10-9--------------|
|-7----6---7----6---7----7---9-----------------------------------6-4-|
|----------------------------------7-8-------7-8--------8-9----4-----|
|----4---3----4---3----5---7---------------------------------2-------|

0:54
|----------------------8-7---8-7---8-7---13-| *These notes were played an
|-----1---2*-0*---2--8-----9-----9-----9----| octave lower, but as the rest of
|-2-4---2-------0---------------------------| the album was played in E,
|-------------------------------------------| I didnt bother to tab this in D.

1:08
|-15--14--15--14-15--14-15--14-|
|------------------------------|
|-----12--13--12-13--12-13--12-|
|------------------------------|

1:15
|-----9--8-------------------------------16-(let ring)-16-|
|---------------14--13-14-16-17-16-14-13-(let ring)-------|
|---------------------------------------------------------|
|-8-7-------8-7-------------------------------------------|

That's it!

  Visit MetalTabs.com for more metal tablature

bottom separator

Contact Us | Privacy Policy | Disclaimer | Legal Notice
Copyright © 2001-2014 MetalTabs.com. All Rights Reserved.