top separator

Home

Forum

What's New

Submit a Tab

FAQ

Links

Contact Us

Link to Us

MuSpy.com

MetalTabs.com logo

Bands

0-9

A

B

C

D

E

F

G

H

I

J

K

L

M

N

O

P

Q

R

S

T

U

V

W

X

Y

Z

Search

What

Where
 

Tankard - "New Liver Please!" Guitar Tab

Plain Text Version
More Tankard Tabs

Hits: 2227
Rated: 4.00 out of 5 (2 votes)
Updated: 2006-08-17 02:39:24

 

By:

MetalThrashingMad

sendpm.gif

email.gif

Important note
This tab is available online because we obtained explicit permission from Tankard or their label.


#----------------------------------PLEASE NOTE---------------------------------#
#This file is the author's own work and represents their interpretation of the #
#song. You may only use this file for private study, scholarship, or research. #
#Unless specified otherwise, this is NOT an official tab from the band members.#
#------------------------------------------------------------------------------#

  Visit MetalTabs.com for more metal tablature
  
New Liver Please
                                  By Tankard
                          From the 2001 Album B-Day

                                           _______________________
Transcribed by: Steve Rubaszek            | KEY:                  |
                                          |                       |
                                          | _ = Palm mute         |
Email: Thrasher502@hotmail.com            |                       |
                                          | \ = slide             |
                                          |                       |
Version: 1.0 - June 22, 2006              | x = scrape            |
                                          |                       |
                                          | h = hammer on         |
Arranged by Tankard                       |                       |
                                          | b = half step bend    |
                                          |                       |
When guitars are harmonizing,             | fb = full step bend   |
  the top is the left channel,            |                       |
     and the bottom is the right.         | p = pull off          |
                                          |                       |
                                          | ~ = trill             |
Tuning: Eb Ab Db Gb Bb Eb                 |_______________________|


0:00


Intro x2
|----------|----------|----------|-------------|
|----------|----------|----------|-------------|
|----------|----------|----------|-------------|
|-2--------|-2--------|-2--------|-5-4-3-------|
|-2--5-4-3-|-2--5-4-3-|-2--5-4-3-|-3-2-1-5-4-3-|
|-0--3-2-1-|-0--3-2-1-|-0--3-2-1-|-------3-2-1-|
     _____     ______     ______   ___________


Intro 2 x4
|--------------|--------------|--------------|-------------|
|--------------|--------------|--------------|-------------|
|--------------|--------------|--------------|-------------|
|-2------------|-2------------|-2------------|-5-4-3-------|
|-2------5-4-3-|-2------5-4-3-|-2------5-4-3-|-3-2-1-5-4-3-|
|-0-0000-3-2-1-|-0-0000-3-2-1-|-0-0000-3-2-1-|-------3-2-1-|
    __________     __________     __________   ___________


0:31


Main riff 1 x3
|-----------------|-----------------|-----------------|-----------------|
|-----------------|-----------------|-----------------|-----------------|
|-----------------|-----------------|-----------------|-----------------|
|-----------------|-----------------|-----------------|-----------------|
|-----------------|-----------------|-----------------|-3-2-1-2---------|
|-0-0-0-0-0-3-2-1-|-0-0-0-0-0-3-2-1-|-0-0-0-0-0-3-2-1-|---------3-2-1-2-|
  _______________   _______________   _______________   _______________


Main riff 1 with harmony
|-----------------|-----------------|-----------------|-----------------|
|-----------------|-----------------|-----------------|-----------------|
|-----------------|-----------------|-----------------|-----------------|
|-----------------|-----------------|-----------------|-----------------|
|-----------------|-----------------|-----------------|-3-2-1-2---------|
|-0-0-0-0-0-3-2-1-|-0-0-0-0-0-3-2-1-|-0-0-0-0-0-3-2-1-|---------3-2-1-2-|
| _______________   _______________   _______________   _______________ |
|                                                                       |
|-----------------|-----------------|-----------------|-----------------|
|-----------------|-----------------|-----------------|-----------------|
|-----------------|-----------------|-----------------|-----------------|
|-----------------|-----------------|-----------------|-3-2-1-2---------|
|-----------3-2-1-|-----------3-2-1-|-----------3-2-1-|---------3-2-1-2-|
|-0-0-0-0-0-------|-0-0-0-0-0-------|-0-0-0-0-0-------|-----------------|
  _______________   _______________   _______________   _______________


0:48


Fill 1
|-----------------|-----------------|-----------------|
|-----------------|-----------------|-3-3-3-3-3-3-3-3-|
|-----------------|-3-3-3-3-3-3-3-3-|-3-3-3-3-3-3-3-3-|
|-3-3-3-3-3-3-3-3-|-3-3-3-3-3-3-3-3-|-3-3-3-3-3-3-3-3-|
|-1-1-1-1-1-1-1-1-|-1-1-1-1-1-1-1-1-|-1-1-1-1-1-1-1-1-|
|-----------------|-----------------|-----------------|
                                        ^__ x2 __^


Main riff 1
|-----------------|-----------------|-----------------|-----------------|
|-----------------|-----------------|-----------------|-----------------|
|-----------------|-----------------|-----------------|-----------------|
|-----------------|-----------------|-----------------|-----------------|
|-----------------|-----------------|-----------------|-3-2-1-2---------|
|-0-0-0-0-0-3-2-1-|-0-0-0-0-0-3-2-1-|-0-0-0-0-0-3-2-1-|---------3-2-1-2-|
  _______________   _______________   _______________   _______________


Main riff 1 with harmony
|-----------------|-----------------|-----------------|-----------------|
|-----------------|-----------------|-----------------|-----------------|
|-----------------|-----------------|-----------------|-----------------|
|-----------------|-----------------|-----------------|-----------------|
|-----------------|-----------------|-----------------|-3-2-1-2---------|
|-0-0-0-0-0-3-2-1-|-0-0-0-0-0-3-2-1-|-0-0-0-0-0-3-2-1-|---------3-2-1-2-|
| _______________   _______________   _______________   _______________ |
|                                                                       |
|-----------------|-----------------|-----------------|-----------------|
|-----------------|-----------------|-----------------|-----------------|
|-----------------|-----------------|-----------------|-----------------|
|-----------------|-----------------|-----------------|-3-2-1-2---------|
|-----------3-2-1-|-----------3-2-1-|-----------3-2-1-|---------3-2-1-2-|
|-0-0-0-0-0-------|-0-0-0-0-0-------|-0-0-0-0-0-------|-----------------|
  _______________   _______________   _______________   _______________


1:01


Chorus A x2
|---------------|-------------------|---------------|-------------|
|---------------|-------------------|---------------|-------------|
|---------------|-------------------|---------------|-------------|
|---------------|-------------------|---------------|-------------|
|---------------|-------------------|---------------|-7-6-5-7-6-5-|
|-7-0-0-8-0-0-5-|-7-0-0-8-0-0-8tr10-|-7-0-0-8-0-0-5-|-5-4-3-5-4-3-|
    ___   ___       ___   ___           ___   ___     ___________


Chorus B x2
|---------------|-------------------|---------------|-------------|
|---------------|-------------------|---------------|-------------|
|---------------|-------------------|---------------|-------------|
|---------------|-------------------|---------------|-------------|
|---------------|-------------------|---------------|-7-6-5-7-6-5-|
|-7-0-0-8-0-0-5-|-7-0-0-8-0-0-8tr10-|-7-0-0-8-0-0-5-|-5-4-3-5-4-3-|
|   ___   ___       ___   ___           ___   ___     ___________ |
|                                                                 |
|---------------|-------------------|---------------|-------------|
|---------------|-------------------|---------------|-------------|
|---------------|-------------------|---------------|-------------|
|---------------|-------------------|---------------|-------------|
|---------------|-------------------|---------------|-7-6-5-7-6-5-|
|-7-0-0-0-0-0-0-|-7\-0-0-0-0-0-0-0--|-7\0-0-0-0-0-0-|-5-4-3-5-4-3-|
    ___________      _____________      ___________   ___________


1:18 - Solo


Main riff 1
|-----------------|-----------------|-----------------|-----------------|
|-----------------|-----------------|-----------------|-----------------|
|-----------------|-----------------|-----------------|-----------------|
|-----------------|-----------------|-----------------|-----------------|
|-----------------|-----------------|-----------------|-3-2-1-2---------|
|-0-0-0-0-0-3-2-1-|-0-0-0-0-0-3-2-1-|-0-0-0-0-0-3-2-1-|---------3-2-1-2-|
  _______________   _______________   _______________   _______________


Main riff 1 with harmony
|-----------------|-----------------|-----------------|-----------------|
|-----------------|-----------------|-----------------|-----------------|
|-----------------|-----------------|-----------------|-----------------|
|-----------------|-----------------|-----------------|-----------------|
|-----------------|-----------------|-----------------|-3-2-1-2---------|
|-0-0-0-0-0-3-2-1-|-0-0-0-0-0-3-2-1-|-0-0-0-0-0-3-2-1-|---------3-2-1-2-|
| _______________   _______________   _______________   _______________ |
|                                                                       |
|-----------------|-----------------|-----------------|-----------------|
|-----------------|-----------------|-----------------|-----------------|
|-----------------|-----------------|-----------------|-----------------|
|-----------------|-----------------|-----------------|-3-2-1-2---------|
|-----------3-2-1-|-----------3-2-1-|-----------3-2-1-|---------3-2-1-2-|
|-0-0-0-0-0-------|-0-0-0-0-0-------|-0-0-0-0-0-------|-----------------|
  _______________   _______________   _______________   _______________


1:27


Intro
|----------|----------|----------|-------------|
|----------|----------|----------|-------------|
|----------|----------|----------|-------------|
|-2--------|-2--------|-2--------|-5-4-3-------|
|-2--5-4-3-|-2--5-4-3-|-2--5-4-3-|-3-2-1-5-4-3-|
|-0--3-2-1-|-0--3-2-1-|-0--3-2-1-|-------3-2-1-|
     _____     ______     ______   ___________


Intro 2 x3
|--------------|--------------|--------------|-------------|
|--------------|--------------|--------------|-------------|
|--------------|--------------|--------------|-------------|
|-2------------|-2------------|-2------------|-5-4-3-------|
|-2------5-4-3-|-2------5-4-3-|-2------5-4-3-|-3-2-1-5-4-3-|
|-0-0000-3-2-1-|-0-0000-3-2-1-|-0-0000-3-2-1-|-------3-2-1-|
    __________     __________     __________   ___________


1:42


Main riff 1
|-----------------|-----------------|-----------------|-----------------|
|-----------------|-----------------|-----------------|-----------------|
|-----------------|-----------------|-----------------|-----------------|
|-----------------|-----------------|-----------------|-----------------|
|-----------------|-----------------|-----------------|-3-2-1-2---------|
|-0-0-0-0-0-3-2-1-|-0-0-0-0-0-3-2-1-|-0-0-0-0-0-3-2-1-|---------3-2-1-2-|
  _______________   _______________   _______________   _______________


Main riff 1 with harmony
|-----------------|-----------------|-----------------|-----------------|
|-----------------|-----------------|-----------------|-----------------|
|-----------------|-----------------|-----------------|-----------------|
|-----------------|-----------------|-----------------|-----------------|
|-----------------|-----------------|-----------------|-3-2-1-2---------|
|-0-0-0-0-0-3-2-1-|-0-0-0-0-0-3-2-1-|-0-0-0-0-0-3-2-1-|---------3-2-1-2-|
| _______________   _______________   _______________   _______________ |
|                                                                       |
|-----------------|-----------------|-----------------|-----------------|
|-----------------|-----------------|-----------------|-----------------|
|-----------------|-----------------|-----------------|-----------------|
|-----------------|-----------------|-----------------|-3-2-1-2---------|
|-----------3-2-1-|-----------3-2-1-|-----------3-2-1-|---------3-2-1-2-|
|-0-0-0-0-0-------|-0-0-0-0-0-------|-0-0-0-0-0-------|-----------------|
  _______________   _______________   _______________   _______________


1:50


Fill 1
|-----------------|-----------------|-----------------|
|-----------------|-----------------|-3-3-3-3-3-3-3-3-|
|-----------------|-3-3-3-3-3-3-3-3-|-3-3-3-3-3-3-3-3-|
|-3-3-3-3-3-3-3-3-|-3-3-3-3-3-3-3-3-|-3-3-3-3-3-3-3-3-|
|-1-1-1-1-1-1-1-1-|-1-1-1-1-1-1-1-1-|-1-1-1-1-1-1-1-1-|
|-----------------|-----------------|-----------------|
                                        ^__ x2 __^


Main riff 1
|-----------------|-----------------|-----------------|-----------------|
|-----------------|-----------------|-----------------|-----------------|
|-----------------|-----------------|-----------------|-----------------|
|-----------------|-----------------|-----------------|-----------------|
|-----------------|-----------------|-----------------|-3-2-1-2---------|
|-0-0-0-0-0-3-2-1-|-0-0-0-0-0-3-2-1-|-0-0-0-0-0-3-2-1-|---------3-2-1-2-|
  _______________   _______________   _______________   _______________


Main riff 1 with harmony
|-----------------|-----------------|-----------------|-----------------|
|-----------------|-----------------|-----------------|-----------------|
|-----------------|-----------------|-----------------|-----------------|
|-----------------|-----------------|-----------------|-----------------|
|-----------------|-----------------|-----------------|-3-2-1-2---------|
|-0-0-0-0-0-3-2-1-|-0-0-0-0-0-3-2-1-|-0-0-0-0-0-3-2-1-|---------3-2-1-2-|
| _______________   _______________   _______________   _______________ |
|                                                                       |
|-----------------|-----------------|-----------------|-----------------|
|-----------------|-----------------|-----------------|-----------------|
|-----------------|-----------------|-----------------|-----------------|
|-----------------|-----------------|-----------------|-3-2-1-2---------|
|-----------3-2-1-|-----------3-2-1-|-----------3-2-1-|---------3-2-1-2-|
|-0-0-0-0-0-------|-0-0-0-0-0-------|-0-0-0-0-0-------|-----------------|
  _______________   _______________   _______________   _______________


2:02


Chorus x2
|---------------|-------------------|---------------|-------------|
|---------------|-------------------|---------------|-------------|
|---------------|-------------------|---------------|-------------|
|---------------|-------------------|---------------|-------------|
|---------------|-------------------|---------------|-7-6-5-7-6-5-|
|-7-0-0-8-0-0-5-|-7-0-0-8-0-0-8tr10-|-7-0-0-8-0-0-5-|-5-4-3-5-4-3-|
    ___   ___       ___   ___           ___   ___     ___________

Chorus B x4
|---------------|-------------------|---------------|-------------|
|---------------|-------------------|---------------|-------------|
|---------------|-------------------|---------------|-------------|
|---------------|-------------------|---------------|-------------|
|---------------|-------------------|---------------|-7-6-5-7-6-5-|
|-7-0-0-8-0-0-5-|-7-0-0-8-0-0-8tr10-|-7-0-0-8-0-0-5-|-5-4-3-5-4-3-|
|   ___   ___       ___   ___           ___   ___     ___________ |
|                                                                 |
|---------------|-------------------|---------------|-------------|
|---------------|-------------------|---------------|-------------|
|---------------|-------------------|---------------|-------------|
|---------------|-------------------|---------------|-------------|
|---------------|-------------------|---------------|-7-6-5-7-6-5-|
|-7-0-0-0-0-0-0-|-7\-0-0-0-0-0-0-0--|-7\0-0-0-0-0-0-|-5-4-3-5-4-3-|
    ___________      _____________      ___________   ___________


2:29


Intro part
|----------|--------|
|----------|--------|
|----------|--------|
|-2--------|-2------|
|-2--5-4-3-|-2------|
|-0--3-2-1-|-0------|
     _____


Main riff 1
|-----------------|-----------------|-----------------|-----------------|
|-----------------|-----------------|-----------------|-----------------|
|-----------------|-----------------|-----------------|-----------------|
|-----------------|-----------------|-----------------|-----------------|
|-----------------|-----------------|-----------------|-3-2-1-2---------|
|-0-0-0-0-0-3-2-1-|-0-0-0-0-0-3-2-1-|-0-0-0-0-0-3-2-1-|---------3-2-1-2-|
  _______________   _______________   _______________   _______________


Main riff 1 with harmony
|-----------------|-----------------|-----------------|-----------------|
|-----------------|-----------------|-----------------|-----------------|
|-----------------|-----------------|-----------------|-----------------|
|-----------------|-----------------|-----------------|-----------------|
|-----------------|-----------------|-----------------|-3-2-1-2---------|
|-0-0-0-0-0-3-2-1-|-0-0-0-0-0-3-2-1-|-0-0-0-0-0-3-2-1-|---------3-2-1-2-|
| _______________   _______________   _______________   _______________ |
|                                                                       |
|-----------------|-----------------|-----------------|-----------------|
|-----------------|-----------------|-----------------|-----------------|
|-----------------|-----------------|-----------------|-----------------|
|-----------------|-----------------|-----------------|-3-2-1-2---------|
|-----------3-2-1-|-----------3-2-1-|-----------3-2-1-|---------3-2-1-2-|
|-0-0-0-0-0-------|-0-0-0-0-0-------|-0-0-0-0-0-------|-----------------|
  _______________   _______________   _______________   _______________


2:39


Chorus x2
|---------------|-------------------|---------------|-------------|
|---------------|-------------------|---------------|-------------|
|---------------|-------------------|---------------|-------------|
|---------------|-------------------|---------------|-------------|
|---------------|-------------------|---------------|-7-6-5-7-6-5-|
|-7-0-0-8-0-0-5-|-7-0-0-8-0-0-8tr10-|-7-0-0-8-0-0-5-|-5-4-3-5-4-3-|
    ___   ___       ___   ___           ___   ___     ___________


Chorus B x2
|---------------|-------------------|---------------|-------------|
|---------------|-------------------|---------------|-------------|
|---------------|-------------------|---------------|-------------|
|---------------|-------------------|---------------|-------------|
|---------------|-------------------|---------------|-7-6-5-7-6-5-|
|-7-0-0-8-0-0-5-|-7-0-0-8-0-0-8tr10-|-7-0-0-8-0-0-5-|-5-4-3-5-4-3-|
|   ___   ___       ___   ___           ___   ___     ___________ |
|                                                                 |
|---------------|-------------------|---------------|-------------|
|---------------|-------------------|---------------|-------------|
|---------------|-------------------|---------------|-------------|
|---------------|-------------------|---------------|-------------|
|---------------|-------------------|---------------|-7-6-5-7-6-5-|
|-7-0-0-0-0-0-0-|-7\-0-0-0-0-0-0-0--|-7\0-0-0-0-0-0-|-5-4-3-5-4-3-|
    ___________      _____________      ___________   ___________


2:57


Main riff 1
|-----------------|-----------------|-----------------|-----------------|
|-----------------|-----------------|-----------------|-----------------|
|-----------------|-----------------|-----------------|-----------------|
|-----------------|-----------------|-----------------|-----------------|
|-----------------|-----------------|-----------------|-3-2-1-2---------|
|-0-0-0-0-0-3-2-1-|-0-0-0-0-0-3-2-1-|-0-0-0-0-0-3-2-1-|---------3-2-1-2-|
  _______________   _______________   _______________   _______________


Main riff 1 with harmony
|-----------------|-----------------|-----------------|-----------------|
|-----------------|-----------------|-----------------|-----------------|
|-----------------|-----------------|-----------------|-----------------|
|-----------------|-----------------|-----------------|-----------------|
|-----------------|-----------------|-----------------|-3-2-1-2---------|
|-0-0-0-0-0-3-2-1-|-0-0-0-0-0-3-2-1-|-0-0-0-0-0-3-2-1-|---------3-2-1-2-|
| _______________   _______________   _______________   _______________ |
|                                                                       |
|-----------------|-----------------|-----------------|-----------------|
|-----------------|-----------------|-----------------|-----------------|
|-----------------|-----------------|-----------------|-----------------|
|-----------------|-----------------|-----------------|-3-2-1-2---------|
|-----------3-2-1-|-----------3-2-1-|-----------3-2-1-|---------3-2-1-2-|
|-0-0-0-0-0-------|-0-0-0-0-0-------|-0-0-0-0-0-------|-----------------|
  _______________   _______________   _______________   _______________


Fill 1
|-----------------|-----------------|-----------------|
|-----------------|-----------------|-3-3-3-3-3-3-3-3-|
|-----------------|-3-3-3-3-3-3-3-3-|-3-3-3-3-3-3-3-3-|
|-3-3-3-3-3-3-3-3-|-3-3-3-3-3-3-3-3-|-3-3-3-3-3-3-3-3-|
|-1-1-1-1-1-1-1-1-|-1-1-1-1-1-1-1-1-|-1-1-1-1-1-1-1-1-|
|-----------------|-----------------|-----------------|
                                        ^__ x2 __^


Chorus
|---------------|-------------------|---------------|-------------|
|---------------|-------------------|---------------|-------------|
|---------------|-------------------|---------------|-------------|
|---------------|-------------------|---------------|-------------|
|---------------|-------------------|---------------|-7-6-5-7-6-5-|
|-7-0-0-8-0-0-5-|-7-0-0-8-0-0-8tr10-|-7-0-0-8-0-0-5-|-5-4-3-5-4-3-|
|   ___   ___       ___   ___           ___   ___     ___________ |
|                                                                 |
|---------------|-------------------|---------------|-------------|
|---------------|-------------------|---------------|-------------|
|---------------|-------------------|---------------|-------------|
|---------------|-------------------|---------------|-------------|
|---------------|-------------------|---------------|-7-6-5-7-6-5-|
|---------------|-------------------|---------------|-5-4-3-5-4-3-|
                                                      ___________


Chorus B x4
|---------------|-------------------|---------------|-------------|
|---------------|-------------------|---------------|-------------|
|---------------|-------------------|---------------|-------------|
|---------------|-------------------|---------------|-------------|
|---------------|-------------------|---------------|-7-6-5-7-6-5-|
|-7-0-0-8-0-0-5-|-7-0-0-8-0-0-8tr10-|-7-0-0-8-0-0-5-|-5-4-3-5-4-3-|
|   ___   ___       ___   ___           ___   ___     ___________ |
|                                                                 |
|---------------|-------------------|---------------|-------------|
|---------------|-------------------|---------------|-------------|
|---------------|-------------------|---------------|-------------|
|---------------|-------------------|---------------|-------------|
|---------------|-------------------|---------------|-7-6-5-7-6-5-|
|-7-0-0-0-0-0-0-|-7\-0-0-0-0-0-0-0--|-7\0-0-0-0-0-0-|-5-4-3-5-4-3-|
    ___________      _____________      ___________   ___________


end with E5
|-----|
|-----|
|-----|
|--2--|
|--2--|
|--0--|

END

  Visit MetalTabs.com for more metal tablature

bottom separator

Contact Us | Privacy Policy | Disclaimer | Legal Notice
Copyright © 2001-2014 MetalTabs.com. All Rights Reserved.