top separator

Home

Forum

What's New

Submit a Tab

FAQ

Links

Contact Us

Link to Us

MetalTabs.com logo

Bands

0-9

A

B

C

D

E

F

G

H

I

J

K

L

M

N

O

P

Q

R

S

T

U

V

W

X

Y

Z

Search

What

Where
 

Temple of the Absurd - "Darker Than Hate" Guitar Tab

Plain Text Version
More Temple of the Absurd Tabs

Hits: 1874
Updated: 2006-08-17 02:32:23

 

By:

Daniil

sendpm.gif

email.gif

Important note
This tab is available online because we obtained explicit permission from Temple of the Absurd or their label.


#----------------------------------PLEASE NOTE---------------------------------#
#This file is the author's own work and represents their interpretation of the #
#song. You may only use this file for private study, scholarship, or research. #
#Unless specified otherwise, this is NOT an official tab from the band members.#
#------------------------------------------------------------------------------#

  Visit MetalTabs.com for more metal tablature
  
TEMPLE OF THE ABSURD-Darker Than Hate
Absurd-1995
Copyright WEA Int.
Transcribed by Daniil Laletin
e-mail: dlaletin@mail.ru
version 1.0 March 2006

All corrections are welcome.

 " - tremolo
 / - slide down
 \ - slide up
 . - palm mute
 ~ - long sound
 x - rest
 p - pull off
 h - hammer on
 tr - trill
 () - ghost note, sustained note
 * - artificial harmonics
 b - bend

 Tuning from low to high: D G C F A D

================================

 Intro
|---------------------------------|
|---------------------------------|
|-7-----7-----7---5-----5-----5---|
|---------------------------------|both
|---0-0---0-0---0---0-0---0-0---0-|
|---------------------------------|

|---------------------------------|
|---------------------------------|
|-4-----4-----4-------------------|
|---------------------------------|both
|---0-0---0-0---0-5-5-5-5-5-5-5-5-|
|-----------------3-3-3-3-3-3-3-3-|


 Riff 1
|-----------------------------------|
|-----------------------------------|
|-----------------------------------|
|-----------------------------------|both
|-----------------------------------|
|-5p0-0-5p0--0-5p0-3p0-0-3p0--0-3p0-|

|------------------------|
|------------------------|
|------------------------|
|------------------------|both
|------------------3--5--|
|-2p0-0-2p0--0-2p0-1--3--|

|-----------------------------------|
|-----------------------------------|
|-----------------------------------|
|-----------------------------------|both
|-5p0-0-5p0--0-5p0-3p0-0-3p0--0-3p0-|
|-----------------------------------|

|----------------------------------
|----------------------------------|
|----------------------------------|
|----------------------------------|both
|-2p0-0-2p0--0-2p0-5-5-5-5-5-5-5-5-|
|------------------3-3-3-3-3-3-3-3-|


 Riff 2
|-----8-------7---7h8p7---5--13---5--12--121312---|
|-5---8---5---7---7h8p7---5--13---5--12--121312---|
|-4-------4---------------------------------------|
|-------------------------------------------------|gtr 1
|-------------------------------------------------|
|-------------------------------------------------|
|
|-------------------------------------------------|
|-------------------------------------------------|
|-------------------------------------------------|
|-----5-------4---------------5-------4-----------|gtr 2
|-2---3---2---2---2h3p2---2---3---2---2---2h3p2---|
|-0-------0---------------0-------0---------------|

|-5------13--------5------12--------|
|-5------13--------5------12--------|
|-----------------------------------|
|-----------------------------------|gtr 1
|-----------------------------------|
|-----------------------------------|
|
|-----------------------------------|
|-----------------------------------|
|-----------------------------------|
|-----------------------------------|gtr 2
|-----------------------------------|
|-5p0-0-5p0--0-5p0-3p0-0-3p0--0-3p0-|

|-121312-----8---\-------|
|-121312-----8---\-------|
|------------------------|
|------------------------|gtr 1
|------------------------|
|------------------------|
|
|------------------------|
|------------------------|
|------------------------|
|------------------------|gtr 2
|------------------3--5--|
|-2p0-0-2p0--0-2p0-1--3--|



 Riff 3
|----------------------------------------|
|-7-5-4----4-5--7-5-4----4-5--5----------|
|-------6-------------6------------------|
|----------------------------------------|gtr 1
|----------------------------------------|
|----------------------------------------|
|
|----------------------------------------|
|----------------------------------------|
|----------------------------------------|
|----------------------------------------|gtr 2
|-4---------------------------2----------|
|-2---------------------------0----------|

|-7-5-4----4-5--7-5-4----4-5--5----------|
|-------7-------------7------------------|
|----------------------------------------|
|----------------------------------------|gtr 1
|----------------------------------------|
|----------------------------------------|
|
|----------------------------------------|
|----------------------------------------|
|----------------------------------------|
|----------------------------------------|gtr 2
|-4---------------------------2----------|
|-2---------------------------0----------|

                  x2
|-------------------|
|-8--------6--------|
|-------------------|
|-------------------|gtr 1
|-------------------|
|-------------------|
|
|-------------------|
|-------------------|
|-------------------|
|-------------------|gtr 2
|-5--------3--------|
|-3--------1--------|


 Riff 4                   Riff 5
|-------------------|    |-------------------|
|-------------------|    |-------------------|
|-------------------|    |-------------------|
|-------------------|    |-------------------|both
|-5--------3--------|    |-4--------2--------|
|-3--------1--------|    |-2--------0--------|


 Fill 1
|-----------|
|-----------|
|-----------|
|-----------|both
|-3----5----|
|-1----3----|

  Visit MetalTabs.com for more metal tablature

bottom separator

Contact Us | Privacy Policy | Disclaimer | Legal Notice
Copyright © 2001-2014 MetalTabs.com. All Rights Reserved.