top separator

Home

Forum

What's New

Submit a Tab

FAQ

Links

Contact Us

Link to Us

MetalTabs.com logo

Bands

0-9

A

B

C

D

E

F

G

H

I

J

K

L

M

N

O

P

Q

R

S

T

U

V

W

X

Y

Z

Search

What

Where
 

Holy Moses - "I Will" Guitar Tab

Plain Text Version
More Holy Moses Tabs

Hits: 2273
Updated: 2006-08-17 02:32:11

 

By:

Daniil

sendpm.gif

email.gif

Important note
This tab is available online because we obtained explicit permission from Holy Moses or their label.


#----------------------------------PLEASE NOTE---------------------------------#
#This file is the author's own work and represents their interpretation of the #
#song. You may only use this file for private study, scholarship, or research. #
#Unless specified otherwise, this is NOT an official tab from the band members.#
#------------------------------------------------------------------------------#

  Visit MetalTabs.com for more metal tablature
  
HOLY MOSES-I Will
Strength, Power, Will, Passion-2005
Copyright Armageddeon
Transcribed by Daniil Laletin
e-mail: dlaletin@mail.ru
version 1.0 May 2006

All corrections are welcome.

 " - tremolo
 / - slide down
 \ - slide up
 . - palm mute
 ~ - long sound
 x - rest
 p - pull off
 h - hammer on
 tr - trill
 () - ghost note, sustained note
 * - artificial harmonics
 b - bend

 Tuning from low to high: D G C F A D
================================

 Riff 1
|------------------------------------------|
|------------------------------------------|
|------------------------------------------|
|------------------------------------------|gtr 1
|-6----------------------------------------|
|-7------------------6tr7-------5tr6-------|
|
|------------------------------------------|
|------------------------------------------|
|------------------------------------------|
|------------------------------------------|gtr 2
|-9----------------------------------------|
|-7-7777777777777777-6666-6h7p6-5555-5h6p5-|
    ................

|--------------------------------|
|--------------------------------|
|--------------------------------|
|--------------------8-8---9-9---|gtr 1
|-3----------------666-6-777-7---|
|-4----------------..----..------|
|
|--------------------------------|
|--------------------------------|
|--------------------------------|
|--------------------8-8-x-9-9-x-|gtr 2
|-6------------------6-6-x-7-7-x-|
|-4-4444444444444444-6-6---7-7---|
    ................


 Riff 2
|------------------------------------------|
|------------------------------------------|
|------------------------------------------|
|------------------------------------------|gtr 1
|-9----------------------------------------|
|-7-7777777777777777-6h7p6-6666-5h6p5-5555-|
|   ................       ....       ....
|------------------------------------------|
|------------------------------------------|
|------------------------------------------|
|------------------------------------------|gtr 2
|-9----------------------------------------|
|-7-7777777777777777-6666-6h7p6-5555-5h6p5-|
    ................ ....       ....

|--------------------------------|
|--------------------------------|
|--------------------------------|
|--------------------8-8-x-9-9-x-|gtr 1
|-6------------------6-6-x-7-7-x-|
|-4-4444444444444444-6-6---7-7---|
|   ................
|--------------------------------|
|--------------------------------|
|--------------------------------|
|--------------------8-8-x-9-9-x-|gtr 2
|-6------------------6-6-x-7-7-x-|
|-4-4444444444444444-6-6---7-7---|
    ................


 Riff 3
|------------------------------------------|
|------------------------------------------|
|------------------------------------------|
|------------------------------------------|gtr 1
|------------------------------------------|
|-777777777777777777-6666-6h7p6-5555-5h6p5-|
| .................. ....       ....
|------------------------------------------|
|------------------------------------------|
|------------------------------------------|
|------------------------------------------|gtr 2
|------------------------------------------|
|-777777777777777777-6666-6h7p6-5555-5h6p5-|
  .................. ....       ....

|--------------------------------|
|--------------------------------|
|--------------------------------|
|--------------------8-8-x-9-9-x-|gtr 1
|--------------------6-6-x-7-7-x-|
|-444444444444444444-6-6---7-7---|
| ..................
|--------------------------------|
|--------------------------------|
|--------------------------------|
|--------------------8-8-x-9-9-x-|gtr 2
|--------------------6-6-x-7-7-x-|
|-444444444444444444-6-6---7-7---|
  ..................


 Riff 4
|-------------------------------|-------------|
|-------------------------------|-------------|
|-------------------------------|-------------|
|-7--------------4--------------|-4-3-4-5-4-3-|both
|-5-555-6--------2-222-3--------|-2-1-2-3-2-1-|
|---...-4-444444---...-1-111111-|-2-1-2-3-2-1-|
          ......         ......


 Riff 5
|-------------------------------------------------|
|-------------------------------------------------|
|-------------------------------------------------|
|-4-5-6-7-------------------------4-5-6-7---------|both
|-2-3-4-5---------4-5-6-7---------2-3-4-5-8-7-6-5-|
|-2-3-4-5-1-1-1-1-2-3-4-5-0-0-0-0-2-3-4-5-6-5-4-3-|
          . . . .         . . . .

 Riff 6
|-----------------------------------|
|-----------------------------------|
|-----------------------------------|
|-44556677---------44556677---------|both
|-22334455-8-7-6-5-22334455-4-5-6-7-|
|-22334455-6-5-4-3-22334455-2-3-4-5-|
           . . . .

  Visit MetalTabs.com for more metal tablature

bottom separator

Contact Us | Privacy Policy | Disclaimer | Legal Notice
Copyright © 2001-2014 MetalTabs.com. All Rights Reserved.