top separator

Home

Forum

What's New

Submit a Tab

FAQ

Links

Contact Us

Link to Us

MuSpy.com

MetalTabs.com logo

Bands

0-9

A

B

C

D

E

F

G

H

I

J

K

L

M

N

O

P

Q

R

S

T

U

V

W

X

Y

Z

Search

What

Where
 

Diabolicum - "From The Depths" Guitar Tab

Plain Text Version
More Diabolicum Tabs

Hits: 1726
Rated: 4.50 out of 5 (2 votes)
Updated: 2006-08-17 01:29:02

 

By:

velzevul

sendpm.gif

email.gif

Important note
This tab is available online because we obtained explicit permission from Diabolicum or their label.


#----------------------------------PLEASE NOTE---------------------------------#
#This file is the author's own work and represents their interpretation of the #
#song. You may only use this file for private study, scholarship, or research. #
#Unless specified otherwise, this is NOT an official tab from the band members.#
#------------------------------------------------------------------------------#

  Visit MetalTabs.com for more metal tablature
  
Band: Diabolicum
Album: Killing Spree 1.5 (2001)
Song: From The Depths
Label: Code 666
Tuning: Standart
Tabbed by: ^MorbiD^
Corrections and etc: lord_velzevul@bk.ru
==================================
= LISTEN TO CD FOR CORRECT TEMPO =
==================================
Riff 1: (acoustic guitar)
|--------------------------------------|
|--------------------------------------|
|--------------------------------------|
|-----9-------7--------9---------10----|
|---7---7---9---9---10---10---12----12-|
|-0-------0-------0---------0----------|

Riff 1: (rythm guitar)
|--------------------------------------|
|--------------------------------------|
|--------------------------------------|
|--------------------------------------|
|-2-------4-------5---------7----10----|
|-0-------2-------3---------5-----8----|

Riff 2: (acoustic guitar)
|------------------------------------------------|
|------------------------------------------------|
|------------------------------------------------|
|---9---9---7---7-----9------9------10------10---|
|-77-777-799-999-91010-101010-101212--121212--12-|
|------------------------------------------------|

Riff 3: (acoustic guitar)
|--------------|----------|----------------|-----------------------------|
|--------------|----------|----------------|-----------------------------|
|--------------|----------|----------------|-----------------------------|
|---9-7-9-10-9-|----------|---9-7-10-12-10-|-------9-------9-----7-----7-|
|-7------------|---10-9-7-|-7--------------|-10-10---10-10---9-9---9-9---|
|--------------|-8--------|----------------|-----------------------------|

Riff 3: (rythm guitar)
|---------------------------------------------------|
|---------------------------------------------------|
|---------------------------------------------------|
|-9-9-9-9-9-9-9-9-9-9-------------------------------|
|-7-7-7-7-7-7-7-7-7-7-10-10-10-10-10-10-10-10-10-10-|
|----------------------8--8--8--8--8--8--8--8--8--8-|

Slow solo (together with Riff 3 acoustic+rythm guitar)
<<Under tabulation.>>

  Visit MetalTabs.com for more metal tablature

bottom separator

Contact Us | Privacy Policy | Disclaimer | Legal Notice
Copyright © 2001-2014 MetalTabs.com. All Rights Reserved.