top separator

Home

Forum

What's New

Submit a Tab

FAQ

Links

Contact Us

Link to Us

MetalTabs.com logo

Bands

0-9

A

B

C

D

E

F

G

H

I

J

K

L

M

N

O

P

Q

R

S

T

U

V

W

X

Y

Z

Search

What

Where
 

Fermento - "Never Forget The Rains" Guitar Tab

Plain Text Version
More Fermento Tabs

Hits: 2190
Rated: 4.50 out of 5 (2 votes)
Updated: 2006-08-17 01:26:48

 

By:

[Nocturno_Culto]

sendpm.gif

email.gif

Important note
This tab is available online because we obtained explicit permission from Fermento or their label.


#----------------------------------PLEASE NOTE---------------------------------#
#This file is the author's own work and represents their interpretation of the #
#song. You may only use this file for private study, scholarship, or research. #
#Unless specified otherwise, this is NOT an official tab from the band members.#
#------------------------------------------------------------------------------#

  Visit MetalTabs.com for more metal tablature
  
Band: Fermento
Album: Symbols of Decrepitude, Symbols of Supremacy
Song: Never Forget The Rains

Transcribed By:Nocturno_Culto
Email:Slash_6661@hotmail.com


.  - palm mute           /  - slide up to
\  - slide down to       ~  - vibrato
h  - hammer on           b  - Bend
p  - pull off            Suffixes for bend
t  - tap                 f  - full bend    h - half bend
ph - pinched harmonic    q  - quarter bend t - tap bend
*  - see comment         ^  - Hold bend    r release bend
x  - Stuccatto           ~  - vibrato bend
,  - slight palm mute    () - ghost note, sustained note
"  - tremolo note        <> - Trill

Tuning B E A D F# B

|---------------------|
|---------------------|
|---------------------|
|---------------------|
|-7----6----5----4----|x4
|---------------------|
  "    "    "    "

|-----------------|
|-----------------|
|-----------------|
|---------6-5-----|
|-----5-4-----5-4-|x4
|-2-3-------------|
  " " " " " " " "


|---------------------|
|---------------------|
|---------------------|
|---------------------|
|-7----6----5----4----|x4
|---------------------|
  "    "    "    "


|--------------|
|--------------|
|--------------|
|-----3ph------|
|-5-4----5-7-8-|x8
|-3-2----3-5-6-|
  . .    . . .

|--------------------------------------|
|--------------------------------------|
|--------------------------------------|
|-----6-7-6--------------6-7-6---------|
|-6-5--------6-5-4-5-6-5--------6-5-4--|x4
|-4-3--------4-3-2-3-4-3--------4-3-2--|
  . . " " "  . . . . . . " " "  . . .


|--------------|
|--------------|
|--------------|
|-----3ph------|
|-5-4----5-7-8-|x8
|-3-2----3-5-6-|
  . .    . . .


|-----------------|
|-----------------|
|-----------------|
|---------6-5-----|
|-----5-4-----5-4-|x4
|-2-3-------------|
  " " " " " " " "


|--------------------------------|
|--------------------------------|
|--------------------------------|
|-2------------------------------|
|-2------------5--------<4h5>----|x4
|-0--------2-3------6------------|
           . .


|-------------------------------------------------------------------|
|-------------------------------------------------------------------|
|-------------------------------------------------------------------|
|-2-----------------------------------------------------------------|
|-2--------------5ph-----------4ph--5----------4---3----------------|x4
|-0--0-0-0-0-2-3------6----5-6------3--3-3-3-3---------4---3---4----|
     . . . . . .                       . . . .

Solo
|--------------------------------|
|--------------------------------|
|--------------------------------|
|-2------------------------------|
|-2------------5--------<4h5>----|x4
|-0--------2-3------6------------|
           . .

|-------------------------------|
|-------------------------------|
|-------------------------------|
|-------------------------------|
|-5-8-7-4-5-8-7-4-5-8-7-4-5--5--|x2
|-3-6-5-2-3-6-5-2-3-6-5-2-3--3--|
  . . . . . . . . . . . . .  .

|----------------------------|
|----------------------------|
|----------------------------|
|----------------------------|
|----------------------------|x4
|-3-6-5-2-3-6-5-2-3-6-5-2-3--|
  " " " " " " " " " " " " "

|---------------------|
|---------------------|
|---------------------|
|---------------------|
|-7----6----5----4----|x4
|---------------------|
  "    "    "    "


|---------------------|
|---------------------|
|---------------------|
|-7----6----5----4----|x4
|---------------------|
|---------------------|
  "    "    "    "


|-------------------------------|
|-------------------------------|
|-------------------------------|
|-------------------------------|
|-5-8-7-4-5-8-7-4-5-8-7-4-5--5--|x2
|-3-6-5-2-3-6-5-2-3-6-5-2-3--3--|
  . . . . . . . . . . . . .  .


|----------------------------|
|----------------------------|
|----------------------------|
|----------------------------|
|----------------------------|x4
|-3-6-5-2-3-6-5-2-3-6-5-2-3--|
  " " " " " " " " " " " " "

|-------------------------------|
|-------------------------------|
|-------------------------------|
|-------------------------------|
|-5-8-7-4-5-8-7-4-5-8-7-4-5--5--|x2
|-3-6-5-2-3-6-5-2-3-6-5-2-3--3--|
  . . . . . . . . . . . . .  .


|-------------------------------------------|
|-------------------------------------------|
|-------------------------------------------|
|-------------------------------------------|
|-5----4-5----4-5-----4-5-8-7-4-5---8---5---|
|-3----2-3----2-3-----2-3-6-5-2-3---6---3---|
                      . . . . . .   .   .



END

  Visit MetalTabs.com for more metal tablature

bottom separator

Contact Us | Privacy Policy | Disclaimer | Legal Notice
Copyright © 2001-2014 MetalTabs.com. All Rights Reserved.