top separator

Home

Forum

What's New

Submit a Tab

FAQ

Links

Contact Us

Link to Us

MetalTabs.com logo

Bands

0-9

A

B

C

D

E

F

G

H

I

J

K

L

M

N

O

P

Q

R

S

T

U

V

W

X

Y

Z

Search

What

Where
 

Fermento - "Symbols of Decrepitude" Guitar Tab

Plain Text Version
More Fermento Tabs

Hits: 2470
Rated: 4.00 out of 5 (1 vote)
Updated: 2006-08-17 01:26:14

 

By:

[Nocturno_Culto]

sendpm.gif

email.gif

Important note
This tab is available online because we obtained explicit permission from Fermento or their label.


#----------------------------------PLEASE NOTE---------------------------------#
#This file is the author's own work and represents their interpretation of the #
#song. You may only use this file for private study, scholarship, or research. #
#Unless specified otherwise, this is NOT an official tab from the band members.#
#------------------------------------------------------------------------------#

  Visit MetalTabs.com for more metal tablature
  
Band: Fermento
Album: Symbols of Decrepitude, Symbols of Supremacy
Song: Symbols of Decrepitude
Transcribed By: Nocturno_Culto
Email: Slash_6661@hotmail.com


.  - palm mute           /  - slide up to
\  - slide down to       ~  - vibrato
h  - hammer on           b  - Bend
p  - pull off            Suffixes for bend
t  - tap                 f  - full bend    h - half bend
ph - pinched harmonic    q  - quarter bend t - tap bend
*  - see comment         ^  - Hold bend    r release bend
x  - Stuccatto           ~  - vibrato bend
,  - slight palm mute    () - ghost note, sustained note
"  - tremolo note        <> - Trill

Tuning B E A D F# B
You can play this song in C but is 100% sure Fermento plays in B Tuning


|------------------------------------------------------------------|
|------------------------------------------------------------------|
|------------------------------------------------------------------|
|------------------------------------------------------------------|
|-4----7-6-7-6-7----4-9-8-7-6-5----4----7-6-7-6-7----4-4----4-4----|x2
|-2----5-4-5-4-5----2-7-6-5-4-3----2----5-4-5-4-5----2-2----2-2----|
       . . . .      . . . . .           . . . . .    . .    . .

|----------------------------------------------|
|----------------------------------------------|
|----------------------------------------------|
|----------------------------------------------|
|------------------------------------444--444--|x4
|-2--5--2--5----6--5--6--2--5--2--5--222--222--|
  "  "  "  "    "  "  "  "  "  "  "  ...  ...


|------------------------------------------------------------------|
|------------------------------------------------------------------|
|------------------------------------------------------------------|
|------------------------------------------------------------------|
|-4----7-6-7-6-7----4-9-8-7-6-5----4----7-6-7-6-7----4-4----4-4----|x4
|-2----5-4-5-4-5----2-7-6-5-4-3----2----5-4-5-4-5----2-2----2-2----|
       . . . .      . . . . .           . . . . .    . .    . .

Growl....

|----------------------------------------------------------------|
|----------------------------------------------------------------|
|----------------------------------------------------------------|
|----------------------------------------------------------------|
|-7-6-8-7-4-5-4-5-7-6-8-7-4-5-4-5-7-6-8-7-4-5-4-5-7-6-8-7-4-5-4--|x4
|-5-4-6-5-2-3-2-3-5-4-6-5-2-3-2-3-5-4-6-5-2-3-2-3-5-4-6-5-2-3-2--|
  . . . . . . . . . . . . . . . . . . . . . . . . . . . . . . .


|----------------------------------------------------------------|
|----------------------------------------------------------------|
|----------------------------------------------------------------|
|----------------------------------------------------------------|
|----------------------------------------------------------------|x2
|-5-4-6-5-2-3-2-3-5-4-6-5-2-3-2-3-5-4-6-5-2-3-2-3-5-4-6-5-2-3-2--|
  " " " " " " " " " " " " " " " " " " " " " " " " " " " " " " "


|-----------------------------------|
|-----------------------------------|
|-----------------------------------|
|------------------------------4ph--|
|-7-6-8-7-44444444-7-6-8-7-4--------|x4
|-5-4-6-5-22222222-5-4-6-5-2--------|


|----------------------------------------------------------------|
|----------------------------------------------------------------|
|----------------------------------------------------------------|
|----------------------------------------------------------------|
|-7-6-8-7-4-5-4-5-7-6-8-7-4-5-4-5-7-6-8-7-4-5-4-5-7-6-8-7-4-5-4--|x2
|-5-4-6-5-2-3-2-3-5-4-6-5-2-3-2-3-5-4-6-5-2-3-2-3-5-4-6-5-2-3-2--|
  . . . . . . . . . . . . . . . . . . . . . . . . . . . . . . .

Under the solo
|------------------------------------------------------------------|
|------------------------------------------------------------------|
|------------------------------------------------------------------|
|------------------------------------------------------------------|
|-4----7-6-7-6-7----4-9-8-7-6-5----4----7-6-7-6-7----4-4----4-4----|x5
|-2----5-4-5-4-5----2-7-6-5-4-3----2----5-4-5-4-5----2-2----2-2----|
       . . . .      . . . . .           . . . . .    . .    . .

Solo ends

|---------------------------------------------------------------|
|---------------------------------------------------------------|
|---------------------------------------------------------------|
|------5-5-4--7--6--------------------5-5-4--7--6---------------|
|-4----3-3-2--5--4---6---9-8-7-6-4----3-3-2--5--4---6---9-8-7---|
|-2------------------4---7-6-5-4-2------------------4---7-6-5---|
                         . . . .                        . . .
                         Heavy PM


|--------------------------------|
|--------------------------------|
|--------------------------------|
|------5-5-4--7--6---------------|
|-4----3-3-2--5--4---6---9-8-7-6-|x8
|-2------------------4---7-6-5-4-|
                         . . . .


|------------------------------------------------------|
|------------------------------------------------------|
|------------------------------------------------------|
|------------------------------------------------------|
|-4----------------------------7---6---5---8---7---6---|x4
|-2----------------------------5---4---3---6---5---4---|
  "                            .   .   .   .   .   .


|-------------|   |-------------|
|-------------|   |-------------|
|-------------|   |-------------|
|-------------|   |-------------|
|-------------|x4 |-------------|x8
|-5-4-3-6-5-4-|   |-5-4-3-6-5-4-|
  . . . . . .           *     *   *= pinched harmonic


|-----------------------------------|
|-----------------------------------|
|-----------------------------------|
|-6----------------6------------4ph-|
|-4-4-7-6-44444444-4-4-7-6-4444-----|x4
|---2-5-4-22222222---2-5-4-2222-----|


|------------------|
|------------------|
|------------------|
|-4ph--------------|
|----4-8-7-6-8-7-6-|x5
|----2-6-5-4-6-5-4-|
     . . . . . . .


|----------------|
|----------------|
|----------------|
|-4ph------------|
|----4-8-7-6--6--|
|----2-6-5-4--4--|
     . . . .  .


|------------------------------|
|------------------------------|
|------------------------------|
|------------------------------|
|-3---7--6--7--5--6---4--444-4-|x6
|-1---5--4--5--3--4---2--222-2-|


|---|
|---|
|---|
|---|
|-3-|
|-1-|
  .

END

  Visit MetalTabs.com for more metal tablature

bottom separator

Contact Us | Privacy Policy | Disclaimer | Legal Notice
Copyright © 2001-2014 MetalTabs.com. All Rights Reserved.