top separator

Home

Forum

What's New

Submit a Tab

FAQ

Links

Contact Us

Link to Us

MuSpy.com

MetalTabs.com logo

Bands

0-9

A

B

C

D

E

F

G

H

I

J

K

L

M

N

O

P

Q

R

S

T

U

V

W

X

Y

Z

Search

What

Where
 

Mourning Beloveth - "My Sullen Sulcus" Bass Tab

Plain Text Version
More Mourning Beloveth Tabs

Hits: 2055
Rated: 5.00 out of 5 (4 votes)
Updated: 2006-11-07 06:25:23

 

By:

Paddy

sendpm.gif

email.gif

Important note
This tab is available online because we obtained explicit permission from Mourning Beloveth or their label.


#----------------------------------PLEASE NOTE---------------------------------#
#This file is the author's own work and represents their interpretation of the #
#song. You may only use this file for private study, scholarship, or research. #
#Unless specified otherwise, this is NOT an official tab from the band members.#
#------------------------------------------------------------------------------#

  Visit MetalTabs.com for more metal tablature
  
================================================================================
                       M O U R N I N G   B E L O V E T H

                                       -

                        M Y   S U L L E N   S U L C U S
================================================================================


                                THE SULLEN SULCUS
                           (c) Sentinel Records - 2002
                        http://www.mourningbeloveth.com/


                             Tune Down 1 & 1/2 Steps
                                    C# F# B E

                                 Tempo = 58 BPM
                            Time Signature = (Varies)



                          -----------------------------
                                 Transcribed by

                                 PADDY MCMULLAN
                           stinkypoohpants@yahoo.co.uk

                                   Version 1.0
                             -----------------------

                             Tablature Symbols Used:


 (/)       -  Legato Slide (Blank space indicates length of slide)
 \         -  Slide Down to/Down From (Blank space indicates length of slide)
 /         -  Slide Up To/Up From (Blank space indicates length of slide)
 ( )       -  Ghost Note/Tied Note/Implied Note
 h         -  Hammer-on
 p         -  Pull-off



================================================================================
Riff 1: Play twice
================================================================================


||--------------------|--------------------|--------------------|
||--------------------|--------------------|--------------------|
||-----------3--------|--5-----------------|--3-----------------|
||--0-----------------|---------------3----|---------------0----|


|-----------------------|--------------------|--------------------|
|-----------------------|--------------------|--------------------|
|--2-----------1--1--0--|--------------------|-----------3--------|
|-----------------------|--2------------3----|--0-----------------|


| |-----------------------------| |--------------------|-----------------------|
|6|-----------------------------|4|--------------------|-----------------------|
|/|--5--------------------------|/|--3-----------------|--2-----------1--1--0--|
|4|---------------3----3--------|4|---------------0----|-----------------------|


|--------------------| |
|--------------------|*|
|--------------------|*|
|--2------------3----| |



================================================================================
Riff 2: Play 3 times [ Tempo = 62 BPM ]
================================================================================


||----------------------|---------------------|--------------------|
||----------------------|---------------------|--------------------|
||----------------------|---------------------|--------------------|
||--5------3--5------6--|--5--------3----5----|--6--------8--------|


|---------------------|----------------------|---------------------|
|---------------------|----------------------|---------------------|
|--6--------5----3----|--5------3--5------6--|--5--------3----5----|
|---------------------|----------------------|---------------------|


|-----------------------|---------------------| |
|-----------------------|---------------------|*|
|--6--------8-------6-5-|--6--------3----1----|*|
|-----------------------|---------------------| |



================================================================================
Riff 3: Play once through [ Tempo = 65 BPM ]
================================================================================


  1                      2                        3
||----------------------|------------------------|-----------------------|
||----------------------|------------------------|-----------------------|
||------------2------2--|------------3----3--3/  | -7----7--7--7----7----|
||--0------0------------|--3------3--------------|-----------------------|

 4                      5                      6
|----------------------|----------------------|------------------------|
|----------------------|----------------------|------------------------|
|----------------------|--0------0--0----0----|--3------3--3----3--3/  |
|--8------8--7----7----|----------------------|------------------------|

 7                          8                      9
|--------------------------|----------------------|----------------------|
|--------------------------|----------------------|----------------------|
| -12------12--12----12----|--8------8--7----7----|--0------0--0----0----|
|--------------------------|----------------------|----------------------|

 10                       11                         12
|------------------------|--------------------------|----------------------|
|------------------------|--------------------------|----------------------|
|--3------3--3----3--3/  | -12------12--12----12----|--8------8--7----7----|
|------------------------|--------------------------|----------------------|

 13                     14                       15
|----------------------|------------------------|-----------------------|
|----------------------|------------------------|-----------------------|
|------------2------2--|------------3----3--3/  | -7----7--7--7----7----|
|--0------0------------|--3------3--------------|-----------------------|

 16
|----------------------| |
|----------------------|*|
|----------------------|*|
|--8------8--7----7----| |



================================================================================
Riff 4: Play 4 times
================================================================================


||--------------------|----------------------|----------------------|
||--------------------|----------------------|----------------------|
||--------------------|----------------------|----------------------|
||--0--------0--------|--0--------0----0--0--|--1------1--1------1--|


|-----------------------| |
|-----------------------|*|
|-----------------------|*|
|--1------1--1--3--3----| |



================================================================================
Riff 5: Play once through
================================================================================


  1                      2                       3
||----------------------|-----------------------|----------------------|
||----------------------|-----------------------|----------------------|
||--5------5--5------5--|--5-----------3--2--3--|--0------0--0------0--|
||----------------------|-----------------------|----------------------|

 4                       5                      6
|-----------------------|----------------------|-----------------------|
|-----------------------|----------------------|-----------------------|
|--0---------0--2--3----|--5------5--5------5--|--5------5----3--2--3--|
|-----------------------|----------------------|-----------------------|

 7                      8                      9
|----------------------|----------------------|----------------------|
|----------------------|----------------------|----------------------|
|--0------0--0------0--|--0------2--3----3----|--5------5--5------5--|
|----------------------|----------------------|----------------------|

 10                      11                     12
|-----------------------|----------------------|-----------------------|
|-----------------------|----------------------|-----------------------|
|--5------5----3--2--3--|--0------0--0------0--|--0------2--3--2--3----|
|-----------------------|----------------------|-----------------------|

 13                     14                      15
|----------------------|-----------------------|----------------------|
|----------------------|-----------------------|----------------------|
|--5------5--5------5--|--5------5----3--2--3--|--0------0--0------0--|
|----------------------|-----------------------|----------------------|

 16                       17                     18
|------------------------|----------------------|-----------------------|
|------------------------|----------------------|-----------------------|
|--0------0h 2-3----3----|--5------5--5------5--|--5------5----3--2--3--|
|------------------------|----------------------|-----------------------|

 19                     20                        21
|----------------------|-------------------------|----------------------|
|----------------------|-------------------------|----------------------|
|--0------0--0------0--|--0------0h 2-3--2--3----|--5------5--5------5--|
|----------------------|-------------------------|----------------------|

 22                        23                        24
|-------------------------|-------------------------|-------------------------|
|-------------------------|-------------------------|-------------------------|
|--5------5--5--7--8--10--|--12------12--0------12--|--0------0h 2-3--2--3----|
|-------------------------|-------------------------|-------------------------|

26                      27                      28
|----------------------|-----------------------|----------------------|
|----------------------|-----------------------|----------------------|
|--5------5--5------5--|--5------7--8--7--8----|--0------0--0------0--|
|----------------------|-----------------------|----------------------|

 29                         30                     31
|--------------------------|----------------------|------------------------|
|--------------------------|----------------------|------------------------|
|--0----0--2--3--2--3--3/  | -5------5--5------5--|--5------5--5--3--2--3--|
|--------------------------|----------------------|------------------------|

 32                     33                        34
|----------------------|-------------------------|----------------------|
|----------------------|-------------------------|----------------------|
|--0------0--0------0--|--0------0h 2-3--2--3----|--5------5--5------5--|
|----------------------|-------------------------|----------------------|

 35                        36                     37
|-------------------------|----------------------|-------------------------|
|-------------------------|----------------------|-------------------------|
|--5------5--5--7--8--10--|--0------0--0------0--|--0------0h 2-3--2--3----|
|-------------------------|----------------------|-------------------------|

 38                     39                       40
|----------------------|------------------------|----------------------|
|----------------------|------------------------|----------------------|
|--5------5--5------5--|--5------5--5--7--8--7--|--0------0--0------0--|
|----------------------|------------------------|----------------------|

 41                        42                     43
|-------------------------|----------------------|------------------------|
|-------------------------|----------------------|------------------------|
|--0------0h 2-3--2--3----|--5------5--5------3--|--5------3--5--7--8--7--|
|-------------------------|----------------------|------------------------|

 44                     45                        46
|----------------------|-------------------------|----------------------|
|----------------------|-------------------------|----------------------|
|--0------0--0------0--|--0------0h 2-3--2--3----|--5------5--5------3--|
|----------------------|-------------------------|----------------------|

 47                       48                     49
|------------------------|----------------------|-------------------------|
|------------------------|----------------------|-------------------------|
|--5------5--5--7--8--7--|--0------0--0------0--|--0------0h 2-3--2--3----|
|------------------------|----------------------|-------------------------|

 50                     51                       52
|----------------------|------------------------|----------------------|
|----------------------|------------------------|----------------------|
|--5------5--5------3--|--5------5--5--7--8--7--|--0------0--0------0--|
|----------------------|------------------------|----------------------|

 53                        54                     55
|-------------------------|----------------------|------------------------|
|-------------------------|----------------------|------------------------|
|--0------0h 2-3--2--3----|--5------5--5------5--|--5------5--5--7--8--7--|
|-------------------------|----------------------|------------------------|

 56                     57                        58
|----------------------|-------------------------|-----------------------|
|----------------------|-------------------------|-----------------------|
|--0------0--0------0--|--0------0h 2-3--2--3----|--5------5--5----3--3--|
|----------------------|-------------------------|-----------------------|

 59                       60                      61
|------------------------|-----------------------|-------------------------|
|------------------------|-----------------------|-------------------------|
|--5------5--5--7--8--7--|--0------0--0----------|--0------0h 2-3--2--3----|
|------------------------|-----------------3--3--|-------------------------|

 62                     63                        64
|-----------------------|------------------------|----------------------|
|-----------------------|------------------------|----------------------|
|--5------5--5----3--3--|--5------5--5--7--8--7--|--0------0--0---------|
|-----------------------|------------------------|-------------------3--|

 65
|-------------------------||
|-------------------------||
|--0------0h 2-3--2--3----||
|-------------------------||



This riff is quite lengthy, so if you can't be bothered learning it exactly,
just learn the first 4 bars and improvise on that.



================================================================================
Riff 6: Play once through [ This riff is a variation of Riff 3 ]
================================================================================


  1                      2                        3
||----------------------|------------------------|--------------------------|
||----------------------|------------------------|--------------------------|
||--0------0--0----0----|--3------3--3----3--3/  | -12------12--12----12----|
||----------------------|------------------------|--------------------------|

 4                      5                      6
|----------------------|----------------------|------------------------|
|----------------------|----------------------|------------------------|
|--8------8--7----7----|------------2------2--|------------3----3--3/  |
|----------------------|--0------0------------|--3------3--------------|

 7                       8                      9
|-----------------------|----------------------|----------------------|
|-----------------------|----------------------|----------------------|
| -7----7--7--7----7----|----------------------|------------2------2--|
|-----------------------|--8------8--7----7----|--0------0------------|

 10                       11                      12
|------------------------|-----------------------|----------------------|
|------------------------|-----------------------|----------------------|
|------------3----3--3/  |--7----7--7--7----7----|----------------------|
|--3------3--------------|-----------------------|--8------8--7----7----|

 13                     14                       15
|----------------------|------------------------|--------------------------|
|----------------------|------------------------|--------------------------|
|--0------0--0----0----|--3------3--3----3--3/  |--12------12--12----12----|
|----------------------|------------------------|--------------------------|

 16
|----------------------||
|----------------------||
|--8------8--7----7----||
|----------------------||



================================================================================
Play Riff 1 twice, Ending on the following: [ Tempo = 60 ]
================================================================================


||-----------||
||-----------||
||-----------||
||--0--------||



================================================================================
End
================================================================================


Tab summary:        Riff 1 X 2
                    Riff 2 X 3
                    Riff 3 X 1
                    Riff 4 X 4
                    Riff 5 X 1
                    Riff 6 X 1
                    Riff 1 X 2

                    END

  Visit MetalTabs.com for more metal tablature

bottom separator

Contact Us | Privacy Policy | Disclaimer | Legal Notice
Copyright © 2001-2014 MetalTabs.com. All Rights Reserved.