top separator

Home

Forum

What's New

Submit a Tab

FAQ

Links

Contact Us

Link to Us

MuSpy.com

MetalTabs.com logo

Bands

0-9

A

B

C

D

E

F

G

H

I

J

K

L

M

N

O

P

Q

R

S

T

U

V

W

X

Y

Z

Search

What

Where
 

Mourning Beloveth - "The Insolent Caul" Bass Tab

Plain Text Version
More Mourning Beloveth Tabs

Hits: 2002
Rated: 5.00 out of 5 (2 votes)
Updated: 2006-11-07 06:26:56

 

By:

Paddy

sendpm.gif

email.gif

Important note
This tab is available online because we obtained explicit permission from Mourning Beloveth or their label.


#----------------------------------PLEASE NOTE---------------------------------#
#This file is the author's own work and represents their interpretation of the #
#song. You may only use this file for private study, scholarship, or research. #
#Unless specified otherwise, this is NOT an official tab from the band members.#
#------------------------------------------------------------------------------#

  Visit MetalTabs.com for more metal tablature
  
================================================================================
                       M O U R N I N G   B E L O V E T H

                                       -

                       T H E   I N S O L E N T   C A U L
================================================================================


                                THE SULLEN SULCUS
                           (c) Sentinel Records - 2002
                        http://www.mourningbeloveth.com/


                             Tune Down 1 & 1/2 Steps
                                    C# F# B E

                                 Tempo = 60 BPM
                              Time Signature = 4/4



                          -----------------------------
                                 Transcribed by

                                 PADDY MCMULLAN
                           stinkypoohpants@yahoo.co.uk

                                   Version 1.0
                             -----------------------

                             Tablature Symbols Used:


 (/)       -  Legato Slide (Blank space indicates length of slide)
 \         -  Slide Down to/Down From (Blank space indicates length of slide)
 /         -  Slide Up To/Up From (Blank space indicates length of slide)
 ( )       -  Ghost Note/Tied Note/Implied Note
 h         -  Hammer-on
 p         -  Pull-off
 |_3_|     -  Triplet Notes
 *         -  Staccato Note


================================================================================
Riff 1: Play twice
================================================================================


                                       |__3__|
||----------------------|---------------------------|------------------------|
||--------3-------------|-----------5--3h 5p 3-2----|--------3---------3--2--|
||--0--5-------5--------|--1------------------------|--0--5-------5----------|
||----------------------|---------------------------|------------------------|


|-----------------------|----------------------|-------------------------|
|--3------3--5---3-2----|--------3-------------|-------------------------|
|-----------------------|--0--5-------5--------|--------------0h 1--0----|
|-----------------------|----------------------|--6--------3-------------|


|------------------------|-----------------------| |
|--------3---------3--2--|--3------3--5---3-2----|*|
|--0--5-------5----------|-----------------------|*|
|------------------------|-----------------------| |



================================================================================
Riff 2: Play 4 times [ Tempo = 65 BPM ]
================================================================================


| |-----------------------|-----------------------|
|4|-----------------------|-----------------------|
|/|-------7\  -------8----|--8------7--7------(7)\|
|4|--0----------0---------|-----------------------|


|  |---------------------------------| |
|12|---------------------------------|*|
|/ |--3----5----5--------------------|*|
|8 |-------------------1--1--0--1----| |



================================================================================
Riff 3: Play 8 times
================================================================================


| |----------------------------------|----------------------|
|4|----------------------------------|----------------------|
|/|-----2----0h2-(2/3)-3h5-5p3-(3\2)-|--3------3--2---------|
|4|--0-------------------------------|-----------------3----|


| |-------------------| |
|3|-------------------|*|
|/|--------------3----|*|
|4|--(3)----2---------| |



================================================================================
Play Riff 1 twice
================================================================================

================================================================================
Riff 4: Play 6 times [ Tempo = 68 BPM ]
================================================================================


| |-------------------------|------------------------|
|4|--0----0--0--0--0--0--2--|--3----2----------------|
|/|-------------------------|------------1----0--0-1-|
|4|-------------------------|------------------------|


|-------------------------|-----------------------| |
|--0----0--0--0--0--0--2--|--3----7----8----10----|*|
|-------------------------|-----------------------|*|
|-------------------------|-----------------------| |



================================================================================
Riff 5: Play 8 times [ Tempo = 45 BPM ]
================================================================================


| |--------------------------------------------|
|3|--------------------------------------------|
|/|--0--0-0-0-0-0--0-0-0-0-0--0-0-0-0-0--0--2--|
|4|--------------------------------------------|


|--------------------------------------------|
|--------------------------------------------|
|--3--3-3-3-3-3--3-3-3-3-3--3-3-3-3-3--3--0--|
|--------------------------------------------|

|--------------------------------------------|
|--------------------------------------------|
|--5--5-5-5-5-5--5-5-5-0-1--1-1-1-1-1--1--0--|
|--------------------------------------------|

|--------------------------------------------| |
|--------------------------------------------|*|
|--------------------------------------2--5--|*|
|--3--3-3-3-3-3--3-3-3-3-3--3-3-3-3-3--------| |



================================================================================
Play Riff 2 Four times [ Tempo = 65 BPM ]
================================================================================

================================================================================
Riff 6: Play 8 times [ Tempo = 68 BPM ] <Variation of Riff 3>
================================================================================


||----------------------------------| |-------------------------|
||----------------------------------|5|-------------------------|
||--*--2----0h2-(2/3)-3h5-5p3-(3\2)-|/|--3------3--2------------|
||--0-------------------------------|4|-------------------------|


| |---------------------| |
|4|---------------------|*|
|/|----------------3----|*|
|4|--3--------2---------| |



End on the following:

||---------------------|---------------|---------------|---------------||
||---------------------|---------------|---------------|---------------||
||--*--2---------------|--(2)----------|--(2)----------|--(2)----------||
||--0------------------|---------------|---------------|---------------||



================================================================================
End
================================================================================


Tab summary:        Riff 1 X 2
                    Riff 2 X 4
                    Riff 3 X 8
                    Riff 4 X 6
                    Riff 5 X 8
                    Riff 2 X 4
                    Riff 6 X 8

                    END

  Visit MetalTabs.com for more metal tablature

bottom separator

Contact Us | Privacy Policy | Disclaimer | Legal Notice
Copyright © 2001-2014 MetalTabs.com. All Rights Reserved.