top separator

Home

Forum

What's New

Submit a Tab

FAQ

Links

Contact Us

Link to Us

MuSpy.com

MetalTabs.com logo

Bands

0-9

A

B

C

D

E

F

G

H

I

J

K

L

M

N

O

P

Q

R

S

T

U

V

W

X

Y

Z

Search

What

Where
 

Mourning Beloveth - "The Insolent Caul" Guitar Tab

Plain Text Version
More Mourning Beloveth Tabs

Hits: 2080
Rated: 5.00 out of 5 (5 votes)
Updated: 2006-11-07 06:26:38

 

By:

Paddy

sendpm.gif

email.gif

Important note
This tab is available online because we obtained explicit permission from Mourning Beloveth or their label.


#----------------------------------PLEASE NOTE---------------------------------#
#This file is the author's own work and represents their interpretation of the #
#song. You may only use this file for private study, scholarship, or research. #
#Unless specified otherwise, this is NOT an official tab from the band members.#
#------------------------------------------------------------------------------#

  Visit MetalTabs.com for more metal tablature
  
================================================================================
                       M O U R N I N G   B E L O V E T H

                                       -

                       T H E   I N S O L E N T   C A U L
================================================================================


                                THE SULLEN SULCUS
                           (c) Sentinel Records - 2002
                        http://www.mourningbeloveth.com/


                             Tune Down 1 & 1/2 Steps
                                 C# F# B E G# C#

                                 Tempo = 60 BPM
                              Time Signature = 4/4



                          -----------------------------
                                 Transcribed by

                                 PADDY MCMULLAN
                           stinkypoohpants@yahoo.co.uk

                                   Version 1.0
                             -----------------------

                             Tablature Symbols Used:


 P.M...    -  Palm Mute
 p         -  Pull-Off
 h         -  Hammer-On
 (/)       -  Legato Slide (Blank space indicates length of slide)
 \         -  Slide Down to/Down From (Blank space indicates length of slide)
 /         -  Slide Up To/Up From (Blank space indicates length of slide)
 ( )       -  Ghost Note/Tied Note/Implied Note
 REST      -  Rest and sustain rest for duration of blank space
 ~~        -  Vibrato
 |_3_|     -  Triplet Notes
 x/x/      -  Pick Scrapes/Fret Noise
 x         -  Muted Note/Dead Note



================================================================================
Riff 1a: Guitar 1 with Heavy Distortion (Play once through)
================================================================================


  1                          2              |__3__|
||--------------------------|-----------------------------|
||--------------------------|-----------------------------|
||--------------------------|-----------------------------|
||--------3-----------------|------------5--3h 5p 3-2~~~--|
||--0--5-------5~~~----(5)\ | -1~~~-----------------------|
||--------------------------|-----------------------------|

 3                         4
|-------------------------|---------------------------|
|-------------------------|---------------------------|
|-------------------------|---------------------------|
|--------3----------3--2--|--3~~~------5---3-2h3p2~~~-|
|--0--5-------5~~~--------|---------------------------|
|-------------------------|---------------------------|

 5                          6                         7
|--------------------------|-------------------------|-------------------------|
|--------------------------|-------------------------|-------------------------|
|--------------------------|-------------------------|-------------------------|
|--------3-----------------|--3----------------------|--------3----------3--2--|
|--0--5-------5~~~----(5)\ | -1--------5--(7/8)-7----|--0--5-------5~~~--------|
|--------------------------|-----------3--(5/6)-5----|-------------------------|

 8                           9
|---------------------------|--------------------------|
|---------------------------|--------------------------|
|-----5--5--3--2~~--3-2~~---|--------------------------|
|--3------------------------|--------3-----------------|
|---------------------------|--0--5-------5~~~----(5)\ |
|---------------------------|--------------------------|

 10             |__3__|        11
|-----------------------------|-------------------------|
|-----------------------------|-------------------------|
|-----------------------------|-------------------------|
|------------5--3h 5p 3-2~~~--|--------3----------3--2--|
| -1~~~-----------------------|--0--5-------5~~~--------|
|-----------------------------|-------------------------|

 12                            13
|-----------------------------|--------------------------|
|-----------------------------|--------------------------|
|-----------------------------|--------------------------|
|--3~--------2h 3-5---3-2~~~--|--------3-----------------|
|-----------------------------|--0--5-------5~~~----(5)\ |
|-----------------------------|--------------------------|

 14                        15
|-------------------------|-------------------------|
|-------------------------|-------------------------|
|-------------------------|-------------------------|
|--3----------------------|--------3----------3--2--|
| -1--------5--(7/8)-7----|--0--5-------5~~~--------|
|-----------3--(5/6)-5----|-------------------------|

 16
|-------------------------------||
|-------------------------------||
|-----5--5--3--2~~---2h 3-2~~~--||
|--3----------------------------||
|-------------------------------||
|-------------------------------||



================================================================================
Riff 1b: Guitar 2 with Heavy Distortion (Play twice)
================================================================================


                                           |__3__|
||--------------------------|----------------------------|
||--------------------------|----------------------------|
||--------------------------|----------------------------|
||--------3-----------------|--3--------5--3h 5p 3-2~~~--|
||--0--5-------5~~~----(5)\ | -1-------------------------|
||--------------------------|----------------------------|


|-------------------------|------------------------|--------------------------|
|-------------------------|------------------------|--------------------------|
|-------------------------|------------------------|--------------------------|
|--------3----------3--2--|--3~~~------5---3-2~~~--|--------3-----------------|
|--0--5-------5~~~--------|------------------------|--0--5-------5~~~----(5)\ |
|-------------------------|------------------------|--------------------------|


|-------------------------| |
|-------------------------| |
|-------------------------|*|
|--3----------------------|*|
| -1--------5--(7/8)-7----| |
|-----------3--(5/6)-5----| |



================================================================================
Riff 2a: Guitar 1 (Play once through) [ Tempo = 65 BPM ]
================================================================================


  1                       2
||-----------------------|-----------------------|
||-----------------------|-----------------------|
||-----------------------|-----------------------|
||-------9\  -------10---|--10-----9--9-----(9)\ |
||--2----7\  --2----8----|--8------7--7-----(7)\ |
||--0----7\  --0----8----|--8------7--7-----(7)\ |
   P.M        ...

    3                                     4
|  |-----------------------------------| |---------------------------|
|  |-----------------------------------| |---------------------------|
|12|-----------------------------------|4|---------------------------|
|/ |--5----7----7------10--10-9--10\ --|/|---------9\  ---------10---|
|8 |--3----5----5------8---8--7--8-\ --|4|--2--x/ -7\  --2--x/ -8----|
|  |-----------------------------------| |--0--x/ -7\  --0--x/ -8----|
                                           ...          ...
 5                          6
|-----------------------|  |------------------------------------|
|-----------------------|  |------------------------------------|
|-----------------------|12|------------------------------------|
|--10-----9--9-----(9)\ |/ |--5----7----7---(7)\ -3--3--2--3----|
|--8------7--7-----(7)\ |8 |--3----5----5---(5)\ -3--3--2--3----|
|--8------7--7-----(7)\ |  |----------------------1--1--0--1----|

   7                         8
| |-------------------------|-----------------------|
| |-------------------------|-----------------------|
|4|-------------------------|-----------------------|
|/|---------9\  -------10---|--10-----9--9-----(9)\ |
|4|--2--x/ -x-----2----8----|--8------7--7-----(7)\ |
| |--0--x/ -7\  --0----8----|--8------7--7-----(7)\ |
    ...          ...

    9                                   10
|  |-----------------------------------| |-------------------------|
|  |-----------------------------------| |-------------------------|
|12|-----------------------------------|4|-------------------------|
|/ |--5----7----7------10--10-9--10\ --|/|---------9\---------10---|
|8 |--3----5----5------8---8--7--8-\ --|4|--2--x/ -x-----2----8----|
|  |-----------------------------------| |--0--x/ -7\----0----8----|
                                           ...          ...
 11                         12
|-----------------------|  |------------------------------------||
|-----------------------|  |------------------------------------||
|-----------------------|12|------------------------------------||
|--10-----9--9-----(9)\ |/ |--5----7----7---(7)\ -3--3--2--3----||
|--8------7--7-----(7)\ |8 |--3----5----5---(5)\ -3--3--2--3----||
|--8------7--7-----(7)\ |  |----------------------1--1--0--1----||



================================================================================
Riff 2b: Guitar 2 (Play twice)
================================================================================


||-----------------------|-----------------------|
||-----------------------|-----------------------|
||-----------------------|-----------------------|
||-------9\  -------10---|--10-----9--9-----(9)\ |
||--2----7\  --2----8----|--8------7--7-----(7)\ |
||--0----7\  --0----8----|--8------7--7-----(7)\ |
   ...        ...

|  |-----------------------------------| |-----------------------|
|  |-----------------------------------| |-----------------------|
|12|-----------------------------------|4|-----------------------|
|/ |--5----7----7------10--10-9--10\ --|/|-------9\  -------10---|
|8 |--3----5----5------8---8--7--8-\ --|4|--2----7\  --2----8----|
|  |-----------------------------------| |--0----7\  --0----8----|
                                           ...        ...

|-----------------------|  |---------------------------------| |
|-----------------------|  |---------------------------------| |
|-----------------------|12|---------------------------------|*|
|--10-----9--9-----(9)\ |/ |--5----7----7---------------3----|*|
|--8------7--7-----(7)\ |8 |--3----5----5------3--3--2--3----| |
|--8------7--7-----(7)\ |  |-------------------1--1--0--1----| |
                                               .......


================================================================================
Riff 3: Guitars 1 & 2 (Play 8 times)
================================================================================


| |----------------------------------|----------------------|
| |----------------------------------|----------------------|
|4|----------------------------------|----------------------|
|/|----------------------------------|----------------------|
|4|--2--2----0h2-(2/3)-3h5-5p3-(3\2)-|--3------3--2----5----|
| |--0-------------------------------|-----------------3----|
    ...

| |-----------------| |
| |-----------------| |
|3|-----------------|*|
|/|------------5----|*|
|4|-(5)---4----3----| |
| |-(3)---2---------| |



================================================================================
Riff 4: Guitar 1 (Play once through) | Guitar 2 plays Riff 1b twice
================================================================================


   1                       2                        3
| |-----------------------|------------------------|-----------------------|
| |-----------------------|------------------------|-----------------------|
|4|-----------------------|--2--3~~~---------------|--------------------5--|
|/|--------3--------------|-----------3--2~~~------|-------3---------------|
|4|--0--5-------5~~~------|------------------------|--5---------5~~~-------|
| |-----------------------|------------------------|-----------------------|

 4                       5                          6
|-----------------------|--------------------------|---------------------------|
|-----------------------|--------------------------|---------------------------|
|--5--3--3--0--2~~~-----|-------------------2--3~~-|-(3)-----------------------|
|-----------------------|--------3-----------------|-----3----3-5-2~~~---------|
|-----------------------|--0--5-------5------------|---------------------/17\--|
|-----------------------|----------------3---------|---------------------------|

 7                          8
|--------------------------|--------------------------|
|--------------------------|--------------------------|
|----------------5--5--7~~-|-(7)-3--3--2--0-----------|
|--------3-----------------|------------------3-2~~~--|
|--0--5-------5------------|--------------------------|
|--------------------------|--------------------------|

 9                           10
|---------------------------|--------------------------|
|---------------------------|--------------------------|
|-----------------2--2--3~~-|-(3)----------------------|
|--------3------------------|-----5~~---3--2~~-----2-3-|
|--0--5-------5~~-----------|--------------------------|
|---------------------------|--------------------------|

 11                         12
|--------------------------|---------------------------|
|--------------------------|---------------------------|
|----------------5--5--3~~-|-(3)-----------------------|
|--------3-----------------|-----5~~---3--2~~----------|
|--0--5-------5------------|---------------------/17\--|
|--------------------------|---------------------------|

 13                         14                       15
|--------------------------|------------------------|--------------------------|
|--------------------------|------------------------|--------------------------|
|----------------2--0------|------------------------|----------------5--2--3~~-|
|--------3-------------3~~-|-(3)-----3-5-2~~~---2-3-|--------3-----------------|
|--0--5-------5------------|------------------------|--0--5-------5------------|
|--------------------------|------------------------|--------------------------|

 16
|--------------------------||
|--------------------------||
|-(3)----------------------||
|-----3~~---3--5~~~---(5)/ ||
|--------------------------||
|--------------------------||



================================================================================
Riff 5a: Guitar 1 (Play 3 times) [ Tempo = 68 BPM ]
================================================================================


||-------------------------|-------------------------------|
||-------------------------|-------------------------------|
||-------------------------|-------------------------------|
||--0----7--7--7--5--3--2--|--3~--(3/7)~~---8~~---7~~-7h 8-|
||-(0)--(0)----------------|-------------------------------|
||-------------------------|-------------------------------|

                 |__3__|
|------------------------------|-----------------------|
|------------------------------|-----------------------|
|------------------------------|-----------------------|
|--7----7--7--7--5h 7p 5-3--2--|--3~~-------------3----|
|------------------------------|--------0----1---------|
|------------------------------|-----------------------|


|-------------------------|-----------------------------|
|-------------------------|-----------------------------|
|-------------------------|----------------------10~~---|
|--0----7--7--7--5--3--2--|--3~--(3/7)~~---8~~----------|
|-------------------------|-----------------------------|
|-------------------------|-----------------------------|


|--------------------------|-------------------------| |
|--------------------------|-------------------------| |
|--7~~~----7--7\ 5---3--2--|--3----------------------|*|
|--------------------------|-------3----2~~-----2h 3-|*|
|--------------------------|-------------------------| |
|--------------------------|-------------------------| |



The ghost notes in bar 1 are only played the first time.



================================================================================
Riff 5b: Guitar 2 (Play 6 times)
================================================================================


||-------------------------|--------------------------|
||-------------------------|--------------------------|
||-------------------------|--------------------------|
||--0----7--7--7--5--3--2--|--3----7----8----7--(7/8)-|
||--0----0--------------2--|--3----7----8----7--(7/8)-|
||----------------------0--|--1----5----6----5--(5/6)-|


|-------------------------|----------------------| |
|-------------------------|----------------------| |
|-------------------------|----------------------|*|
|--0----7--7--7--5--3--2--|-------2----3----5----|*|
|--0-------------------2--|--3----0----1----3----| |
|----------------------0--|--1-------------------| |



================================================================================
Riff 6: Guitars 1 & 2 (Play 8 times) [ Tempo = 45 BPM ]
================================================================================


| |--------------------------------------------|
| |--------------------------------------------|
|3|--------------------------------------------|
|/|--2--2-2-2-2-0--0-0-0-0-3--3-3-3-3-2--3--2--|
|4|--0--0-0-0-0-0--0-0-0-0-0--0-0-0-0-0--0--0--|
| |--------------------------------------------|
        .......    .......    .......

|--------------------------------------------|
|--------------------------------------------|
|--------------------------------------------|
|--2--2-2-2-2-0--0-0-0-0-3--3-3-3-3-2--3--2--|
|--3--3-3-3-3-3--3-3-3-3-3--3-3-3-3-3--3--3--|
|--------------------------------------------|
      .......    .......    .......

|-----------------------------------------------|
|-----------------------------------------------|
|-----------------------------------------------|
|--3--3-3-3-3-3--3-3-3-3-3--3-3-3-3-3--3-3-3-3--|
|--5--5-5-5-5-5--5-5-5-5-1--1-1-1-1-1--1-1-0-0--|
|-----------------------------------------------|
      .......    .......    .......    .......

|--------------------------------------------| |
|--------------------------------------------| |
|--------------------------------------------|*|
|-----------------------------------------0--|*|
|--2--2-2-2-2-3--3-3-3-3-5--5-5-5-5-2--3--2--| |
|--3--3-3-3-3-3--3-3-3-3-3--3-3-3-3-3--3--3--| |
      .......    .......    .......



================================================================================
Lead Riff 1: Guitar 3 with Heavy Distortion (Play once through)
================================================================================


<Enter alongside Riff 6>


=======
Part 1: REST FOR 4 BARS
=======

=======
Part 2:
=======

||-------------------|--------------------------|------------------------|
||-------------------|--------------------------|------------------------|
||-------------------|--------------------------|------------------------|
||--2---0---3---2--0-|-------2--3-(3/5)~~---3-2-|--3----2-3-5-3-2-3p2-0--|
||-------------------|--3-----------------------|------------------------|
||-------------------|--------------------------|------------------------|
                            ...

|------------------------||
|------------------------||
|------------------------||
|--(0)--2-3-5-3-2-0------||
|------------------------||
|------------------------||



=======
Part 3: REST FOR 4 BARS
=======

=======
Part 4:
=======


||--------------------|----------------------|------------------------|
||--------------------|----------------------|------------------------|
||--5---4--2-4--------|--0--2-0--------------|------------------------|
||-------------2------|----------2-----------|--3----2-3-5-3-2-3p2-0--|
||--------------------|------------3---3-2-3-|------------------------|
||--------------------|----------------------|------------------------|


|-----------------------------||----------------|---------------|
|-----------------------3-----||----------------|---------------|
|-----------------2-4-5---5-4-||--2~~~----------|--(2)----------|
|--(0)--2-3-5-3-2-------------||----------------|---------------|
|-----------------------------||----------------|---------------|
|-----------------------------||----------------|---------------|



=======
Part 5: REST FOR 4 BARS
=======

=======
Part 6: PLAY PART 2
=======

=======
Part 7: REST FOR 4 BARS
=======

=======
Part 8: PLAY PART 4 (MINUS THE LAST 2 BARS)
=======



================================================================================
Guitars 1 & 2 play Rifs 2a + 2b (once and twice, respectively)
================================================================================

================================================================================
Riff 7: Guitars 1 and 2 (Play 8 times) <Variation of Riff 3> [ Tempo = 68 BPM ]
================================================================================


||----------------------------------| |-------------------------|
||----------------------------------| |-------------------------|
||----------------------------------|5|-------------------------|
||----------------------------------|/|-------------------------|
||--2--2----0h2-(2/3)-3h5-5p3-(3\2)-|4|--3------3--2------------|
||--0-------------------------------| |-------------------------|
   ...

| |---------------------| |
| |---------------------| |
|4|---------------------|*|
|/|----------------5----|*|
|4|--5--------4----3----| |
| |--3--------2---------| |



Both guitars end on the following:


||---------------------|-------------------|-------------------|
||---------------------|-------------------|-------------------|
||---------------------|-------------------|-------------------|
||---------------------|-------------------|-------------------|
||--2--2---------------|--(2)--------------|--(2)--------------|
||--0------------------|-------------------|-------------------|
   ...

|-------------------||
|-------------------||
|-------------------||
|-------------------||
|--(2)--------------||
|-------------------||



================================================================================
End
================================================================================


Tab summary:        Riff 1a X 1 + Riff 1b X 2
                    Riff 2a X 1 + Riff 2b X 2
                    Riff 3 X 8
                    Riff 4 X 1 + Riff 1b X 2
                    Riff 5a X 3 + Riff 5b X 6
                    Riff 6 X 8 + Lead Riff 1 X 1
                    Riff 2a X 1 + Riff 2b X 2
                    Riff 7 X 8

                    END

  Visit MetalTabs.com for more metal tablature

bottom separator

Contact Us | Privacy Policy | Disclaimer | Legal Notice
Copyright © 2001-2014 MetalTabs.com. All Rights Reserved.