top separator

Home

Forum

What's New

Submit a Tab

FAQ

Links

Contact Us

Link to Us

MetalTabs.com logo

Bands

0-9

A

B

C

D

E

F

G

H

I

J

K

L

M

N

O

P

Q

R

S

T

U

V

W

X

Y

Z

Search

What

Where
 

Mourning Beloveth - "My Sullen Sulcus" Guitar Tab

Plain Text Version
More Mourning Beloveth Tabs

Hits: 2163
Rated: 5.00 out of 5 (5 votes)
Updated: 2006-11-07 06:25:15

 

By:

Paddy

sendpm.gif

email.gif

Important note
This tab is available online because we obtained explicit permission from Mourning Beloveth or their label.


#----------------------------------PLEASE NOTE---------------------------------#
#This file is the author's own work and represents their interpretation of the #
#song. You may only use this file for private study, scholarship, or research. #
#Unless specified otherwise, this is NOT an official tab from the band members.#
#------------------------------------------------------------------------------#

  Visit MetalTabs.com for more metal tablature
  
================================================================================
                       M O U R N I N G   B E L O V E T H

                                       -

                        M Y   S U L L E N   S U L C U S
================================================================================


                                THE SULLEN SULCUS
                           (c) Sentinel Records - 2002
                        http://www.mourningbeloveth.com/


                              Tune Down 1 & 1/2 Steps
                                  C# F# B E G# C#

                                  Tempo = 58 BPM
                               Time Signature = (Varies)



                          -----------------------------
                                 Transcribed by

                                 PADDY MCMULLAN
                           stinkypoohpants@yahoo.co.uk

                                   Version 1.0
                             -----------------------

                             Tablature Symbols Used:


 P.M...    -  Palm Mute
 p         -  Pull-Off
 h         -  Hammer-On
 (/)       -  Legato Slide (Blank space indicates length of slide)
 \         -  Slide Down to/Down From (Blank space indicates length of slide)
 /         -  Slide Up To/Up From (Blank space indicates length of slide)
 ( )       -  Ghost Note/Tied Note/Implied Note
 REST      -  Rest and sustain rest for duration of blank space
 ~~        -  Vibrato
 |_3_|     -  Triplet Notes



================================================================================
Riff 1: Guitars 1 & 2 with Heavy Distortion (Play twice)
================================================================================


   1                    2                    3
| |--------------------|--------------------|--------------------|
| |--------------------|--------------------|--------------------|
|4|--------------------|--------------------|--------------------|
|/|-----------5--------|--7-----------------|--5-----------------|
|4|--2--------3--------|--5------------5----|--3------------2----|
| |--0-----------------|---------------3----|---------------0----|
                                      P.M                  ...

 4                       5                     6
|-----------------------|---------------------|--------------------|
|-----------------------|---------------------|--------------------|
|-----------------------|---------------------|--------------------|
|--4--------------------|---------------------|-----------5--------|
|--2-----------6--6--5--|--4------------------|--2--------3--------|
|--------------6--6--5--|--2------------3~~---|--0-----------------|


   7                             8                    9
| |-----------------------------| |--------------------|-----------------------|
| |-----------------------------| |--------------------|-----------------------|
|6|-----------------------------|4|--------------------|-----------------------|
|/|--7--------------------------|/|--5-----------------|--4--------------------|
|4|--5------------5----5--------|4|--3------------2----|--2-----------6--6--5--|
| |---------------3----3--------| |---------------0----|--------------6--6--5--|
                 ...                             ...

 10
|--------------------| |
|--------------------| |
|--------------------|*|
|--------------------|*|
|--4------------5----| |
|--2------------3----| |



Replace the 5th bar with the 10th bar after the first repeat.



================================================================================
Riff 2: Guitars 1 & 2 (Play 3 times) [ Tempo = 62 BPM ]
================================================================================

  1                      2                     3
||----------------------|---------------------|---------------------|
||----------------------|---------------------|---------------------|
||----------------------|---------------------|---------------------|
||----------------------|---------------------|---------------------|
||--7------5--7------8--|--7--------5----7----|--8--------10--------|
||--5------3--5------6--|--5--------3----5----|--6--------8---------|

 4                     5                      6
|---------------------|----------------------|---------------------|
|---------------------|----------------------|---------------------|
|---------------------|----------------------|---------------------|
|--8--------7----5----|--7------5--7------8--|--7--------5----7----|
|--6--------5----3----|--5------3--5------6--|--5--------3----5----|
|---------------------|----------------------|---------------------|

 7                        8
|------------------------|---------------------| |
|------------------------|---------------------| |
|------------------------|---------------------|*|
|--8--------10-------8-7-|--8--------5----3----|*|
|--6--------8--------6-5-|--6--------3----1----| |
|------------------------|---------------------| |



After the 2nd bar, and during all subsequent repeats, guitar 1 plays only the
bass note of each powerchord - guitar 2 plays the riff as written.



================================================================================
Riff 3a: Guitar 1 (Play once through) [ Tempo = 65 BPM ]
================================================================================


  1                    2                        3
||--------------------|------------------------|-----------------------|
||--------------------|------------------------|-----------------------|
||--------------------|------------------------|-----------------------|
||--2--------4--------|--5-----------5----(5)/ | -9----9--7--7----7----|
||--2--------2--------|--2--------3-(3)-3--3-/ | -7----7-(7)-7----7----|
||--0--------2--------|--3---------------------|-----------------------|

 4                       5                      6
|-----------------------|----------------------|-------------------------|
|-----------------------|----------------------|-------------------------|
|-----------------------|--2---(2)---4----4----|--5----5-------5-----(5)/|
|-----------------------|--2----2----2----2----|--2----2----3-(3)-3--(3)/|
|--7----7----9----9\  --|--0---(0)---0---(0)---|--3---(3)----------------|
|--8----8----7----7\  --|----------------------|-------------------------|

 7                       8                         9
|-----------------------|-------------------------|----------------------|
|-----------------------|-------------------------|----------------------|
| -9----9--7--7----7----|-------------------------|--2---(2)---4----4----|
| -7----7--7--7----7----|--7----7--10--9----9\  --|--2----2----2----2----|
|-----------------------|--8----8--(8)-7----7\  --|--0----0----0---(0)---|
|-----------------------|-------------------------|----------------------|

 10                        11                      12
|-------------------------|-----------------------|-------------------------|
|-------------------------|-----------------------|-------------------------|
|--5----5-------5-----(5)/| -9----9--7--7----7----|-------------------------|
|--2----2----3-(3)-3--(3)/| -7----7--7--7----7----|--7----7--10--9----9\  --|
|--3---(3)----------------|-----------------------|--8----8--(8)-7----7\  --|
|-------------------------|-----------------------|-------------------------|

 13                    14                        15
|---------------------|-------------------------|-----------------------|
|---------------------|-------------------------|-----------------------|
|---------------------|-------------------------|-----------------------|
|--2--------4----4----|--5----5-------5-----(5)/| -9----9--7--7----7----|
|--2--------2----2----|--2---(2)---3-(3)-3--(3)/| -7----7-(7)-7----7----|
|--0--------2---(0)---|--3---(3)----------------|-----------------------|

 16
|-----------------------||
|-----------------------||
|-----------------------||
|-----------------------||
|--7----7----9---(9)\ --||
|--8----8----7---(7)\ --||



================================================================================
Riff 3b: Guitar 2 (Play once through)
================================================================================


  1                    2                      3
||--------------------|----------------------|-----------------------|
||--------------------|----------------------|-----------------------|
||--------------------|----------------------|-----------------------|
||--2--------4--------|--5--------5-----(5)/ | -9----9--7--7----7----|
||--2--------2--------|--2--------3------3-/ | -7----7-(7)-7----7----|
||--0--------2--------|--3-------------------|-----------------------|

 4                      5                      6
|----------------------|----------------------|-------------------------|
|----------------------|----------------------|-------------------------|
|----------------------|--2---(2)---4----4----|--5----5-------5-----(5)/|
|----------------------|--2----2----2----2----|--2----2----3-(3)-3--(3)/|
|--7----7----9----9----|--0---(0)---0---(0)---|--3---(3)----------------|
|--8----8----7----7----|----------------------|-------------------------|

 7                      8                      9
|----------------------|----------------------|----------------------|
|----------------------|----------------------|----------------------|
| -9----9--7--7--------|----------------------|--2---(2)---4----4----|
| -7----7--7--7--------|--7----7----9----9----|--2----2----2----2----|
|----------------------|--8----8----7----7----|--0----0----0---(0)---|
|----------------------|----------------------|----------------------|

 10                       11                      12
|------------------------|-----------------------|----------------------|
|------------------------|-----------------------|----------------------|
|--5----5----5----5--(5)/| -9----9--7--7----7----|----------------------|
|--2----2----3----3--(3)/| -7----7--7--7----7----|--7----7----9----9----|
|--3---(3)---------------|-----------------------|--8----8----7----7----|
|------------------------|-----------------------|----------------------|

 13                   14                       15
|--------------------|------------------------|-----------------------|
|--------------------|------------------------|-----------------------|
|--------------------|------------------------|-----------------------|
|--2--------4--------|--5----5----5----5--(5)/| -9----9--7--7----7----|
|--2--------2--------|--2---(2)---3----3--(3)/| -7----7--7--7----7----|
|--0--------2--------|--3---(3)---------------|-----------------------|

 16
|-----------------------||
|-----------------------||
|-----------------------||
|-----------------------||
|--7----7----9---(9)\ --||
|--8----8----7---(7)\ --||



================================================================================
Riff 4a: Guitar 1 (Play once through)
================================================================================


  1                    2                      3
||--------------------|----------------------|-----------------------|
||--------------------|----------------------|-----------------------|
||--------------------|----------------------|-----------------------|
||--2--------2--------|--2--------2----2--2--|--3--------------------|
||--2--------2--------|--2--------2----2--2--|--3------3--3--2--3----|
||--0--------0--------|--0--------0----0--0--|--1--------------------|
   ...      ...         ...      ...

 4                      5                    6
|----------------------|--------------------|----------------------|
|----------------------|--------------------|----------------------|
|----------------------|--------------------|----------------------|
|--3------2--2----3----|--2--------2--------|--2--------2----2--2--|
|----------------------|--2--------2--------|--2--------2----2--2--|
|----------------------|--0--------0--------|--0--------0----0--0--|
                         ...      ...         ...      ...

 7                         8                      9
|-------------------------|----------------------|--------------------|
|-------------------------|----------------------|--------------------|
|-------------------------|----------------------|--------------------|
|--3-------------------3--|-(3)-----2--2---------|--2--------2--------|
|--3----3--3--3--2--3-----|-----------------3----|--2--------2--------|
|--1----------------------|----------------------|--0--------0--------|
                                                   ...      ...

 10                     11                     12
|----------------------|----------------------|------------------------|
|----------------------|----------------------|------------------------|
|----------------------|----------------------|------------------------|
|--2--------2----2--2--|--3------3--3---------|---------3--3 p 2--2----|
|--2--------2----2--2--|--3----------------3--|--3---------------------|
|--0--------0----0--0--|--1-------------------|------------------------|
  ...      ...

 13                   14                     15
|--------------------|----------------------|-----------------------|
|--------------------|----------------------|-----------------------|
|--------------------|----------------------|-----------------------|
|--2--------2--------|--2--------2----2--2--|--3--------------------|
|--2--------2--------|--2--------2----2--2--|--3------3--3--2--3----|
|--0--------0--------|--0--------0----0--0--|--1--------------------|
  ...      ...         ...      ...

 16
|--------------------------||
|--------------------------||
|--------------------------||
|--3------2--2----2h 3-----||
|--------------------------||
|--------------------------||



After the last repeat, play the following two chords (the volume gradually
decreases on the track at this point):


||-----------|-------------|-----------|-------------||
||-----------|-------------|-----------|-------------||
||-----------|-------------|-----------|-------------||
||--7--------|--(7)--------|--7--------|--(7)--------||
||--5--------|--(5)--------|--7--------|--(7)--------||
||--5--------|--(5)--------|--5--------|--(5)--------||



================================================================================
Riff 4b: Guitar 2 (Play 4 times)
================================================================================


||--------------------|----------------------|-------------------|
||--------------------|----------------------|-------------------|
||--------------------|----------------------|-------------------|
||--2--------2--------|--2--------2----2--2--|--3----------------|
||--2--------2--------|--2--------2----2--2--|--3----------------|
||--0--------0--------|--0--------0----0--0--|--1----------------|
   ...      ...         ...      ...

|-----------------------| |
|-----------------------| |
|-----------------------|*|
|-(3)-------(3/5)--5----|*|
|-(3)-------(3/5)--5----| |
|-(1)-------(1/3)--3----| |



After the last repeat, play the following two chords (the volume gradually
decreases on the track at this point):


||-----------|-------------|-----------|-------------||
||-----------|-------------|-----------|-------------||
||-----------|-------------|-----------|-------------||
||--7--------|--(7)--------|--7--------|--(7)--------||
||--5--------|--(5)--------|--7--------|--(7)--------||
||--5--------|--(5)--------|--5--------|--(5)--------||



================================================================================
Riff 5: Guitar 3 with Clean Tone (Play 16 times)
================================================================================


*Let notes ring wherever possible*

||-------------0---------|-----------0------------|--------------0-----------|
||--------6---------6----|--------6-------6-------|--------0-----------0-----|
||-----7-----------------|-----7-------------7----|-----5-----------5-----5--|
||--0--------------------|--0---------------------|--7--------7--------------|
||-----------------------|------------------------|--------------------------|
||-----------------------|------------------------|--------------------------|


|--------------0-----------| |
|-----------0--------0-----| |
|--------5--------5-----5--|*|
|-----7--------------------|*|
|--0-----------------------| |
|--------------------------| |



After the 4th repeat of this riff, guitar 2 plays the following 12 times:

||-----------|-------------|-----------|-------------||
||-----------|-------------|-----------|-------------||
||-----------|-------------|-----------|-------------||
||--7--------|--(7)--------|--7--------|--(7)--------||
||--5--------|--(5)--------|--7--------|--(7)--------||
||--5--------|--(5)--------|--5--------|--(5)--------||



================================================================================
Lead Riff 1: Guitar 4 with Heavy Distortion (Play once through)
================================================================================


<Enter after the 4th repeat of Riff 5>

                         1                           2
||---------------------||---------------------------|-------------------------|
||--R-          -------||---------------------------|-------------------------|
||--E-          -------||---------------------------|-------------------------|
||--S-          -0--2--||-(2 / 3)------------(3/ 7)-|--7------(7\5)-5------3--|
||--T-          -------||---------------------------|-------------------------|
||---------------------||---------------------------|-------------------------|

 3                    4             |__3__|         5
|--------------------|-----------------------------|---------------------------|
|--------------------|-----------------------------|---------------------------|
|--------------------|-----------------------------|---------------------------|
|--3--2--------------|-(2)----------2h 3p 2p 0--2--|-(2 / 3)------------(3/ 7)-|
|--------------------|-----------------------------|---------------------------|
|--------------------|-----------------------------|---------------------------|

 6                          6                         7
|--------------------------|-------------------------|-------------------------|
|--------------------------|-------------------------|-------------------------|
|--------------------------|----------------------9--|--9~~~------9--7---------|
|--7------(7/10)-9------7--|--(9/ 10)----------7-----|------------------9     \|
|--------------------------|-------------------------|-------------------------|
|--------------------------|-------------------------|-------------------------|

 8                        9                         10
|------------------------|-------------------------|---------------------|
|------------------------|-------------------------|---------------------|
|------------------------|-------------------------|---------------------|
|--3--------------(3/ 7)-|--7-----(7\ 5)-5------3--|--3--2---------------|
|------------------------|-------------------------|---------------------|
|------------------------|-------------------------|---------------------|

 11            |__3__|         12
|-----------------------------|---------------------------|
|-----------------------------|---------------------------|
|-----------------------------|---------------------------|
|-(2)----------2h 3p 2p 0--2--|-(2/ 3)-------------(3/ 7)-|
|-----------------------------|---------------------------|
|-----------------------------|---------------------------|

 13                         14
|--------------------------|------------------------|
|--------------------------|------------------------|
|--------------------------|---------------------9--|
|--7-----(7/ 10)-9------7--|--10--7-----------------|
|--------------------------|------------------------|
|--------------------------|------------------------|

 15             |__3___|          16
|--------------------------------|-------------------------|
|--------------------------------|-------------------------|
|--9~~~---------9h 10p (9\7)--9--|-(9/ 10)-------10--------|
|--------------------------------|-------------------------|
|--------------------------------|-------------------------|
|--------------------------------|-------------------------|

 17                           18
|----------------------------|--------------------------|
|----------------------------|--------------------------|
|--9h 10-9~~~--9----9--7--9--|-(9)----------------------|
|----------------------------|-----7~~~------------9-10-|
|----------------------------|--------------------------|
|----------------------------|--------------------------|

19 |__3___|                      20
|-------------------------------|---------------------------|
|-------------------------------|---------------------------|
|-------------------------------|-(9/10)~~~------10~~~------|
|--9h 10p (9\7)-----7--9--10----|---------------------------|
|-------------------------------|---------------------------|
|-------------------------------|---------------------------|

 21                           22                   23
|----------------------------|--------------------|----------------------|
|----------------------------|--------------------|----------------------|
|--9h 10-9~~~--9----9----10--|--9~~~--------------|-(9)-------9--7--5----|
|----------------------------|--------------------|----------------------|
|----------------------------|--------------------|----------------------|
|----------------------------|--------------------|----------------------|

 24                            25
|-----------------------------|----------------------------|
|-----------------------------|----------------------------|
|-(7/10)~~~--------10~~~------|--9h 10-9~~~--9----9--7--9--|
|-----------------------------|----------------------------|
|-----------------------------|----------------------------|
|-----------------------------|----------------------------|

 26                        27 |__3___|
|--------------------------|-------------------------------|
|--------------------------|-------------------------------|
|-(9)----------------------|-------------------------------|
|-----7~~~------------9-10-|--9h 10p (9\7)-----7--9--10----|
|--------------------------|-------------------------------|
|--------------------------|-------------------------------|

 28                    29                        30                 |__3__|
|---------------------|-------------------------|---------------------------|
|---------------------|-------------------------|---------------------------|
|--7--------7~~~------|--5h 7--5--------4----5--|--4~~~-------------4h 5p 4-|
|---------------------|-------------------------|---------------------------|
|---------------------|-------------------------|---------------------------|
|---------------------|-------------------------|---------------------------|

 31                     32
|----------------------|----------------------------|
|----------------------|----------------------------|
|--2--------2--4--5----|-(5/10)~~~-------10~~~------|
|----------------------|----------------------------|
|----------------------|----------------------------|
|----------------------|----------------------------|

 33                           34
|----------------------------|--------------------------|
|----------------------------|--------------------------|
|--9h 10-9~~~--9----9--7--9--|-(9)----------------------|
|----------------------------|-----7~~~------------9-10-|
|----------------------------|--------------------------|
|----------------------------|--------------------------|

35 |__3___|                      36
|-------------------------------|---------------------------|
|-------------------------------|---------------------------|
|-------------------------------|-(9/10)~~~------10~~~------|
|--9h 10p (9\7)-----7--9--10----|---------------------------|
|-------------------------------|---------------------------|
|-------------------------------|---------------------------|

 37                               38                   39
|--------------------------------|--------------------|----------------------|
|--------------------------------|--------------------|----------------------|
|--9h 10-9~~~--9----9--9--9h 10--|--9~~~--------------|-(9)-------9--7--5----|
|--------------------------------|--------------------|----------------------|
|--------------------------------|--------------------|----------------------|
|--------------------------------|--------------------|----------------------|

 40                           41
|----------------------------|----------------------------|
|----------------------------|----------------------------|
|-(7/10)~~~-------10~~~------|--9h 10-9~~~--9----9--7--9--|
|----------------------------|----------------------------|
|----------------------------|----------------------------|
|----------------------------|----------------------------|

 42                        43 |__3___|
|--------------------------|-------------------------------|
|--------------------------|-------------------------------|
|-(9)----------------------|-------------------------------|
|-----7~~~------------9-10-|--9h 10p (9\7)-----7--9--10----|
|--------------------------|-------------------------------|
|--------------------------|-------------------------------|

 44                    45                      46                 |__3__|
|---------------------|-----------------------|---------------------------|
|---------------------|-----------------------|---------------------------|
|--7--------7~~~------|--7--5--------4   h 5--|--4~~~-------------4h 5p 4-|
|---------------------|-----------------------|---------------------------|
|---------------------|-----------------------|---------------------------|
|---------------------|-----------------------|---------------------------|

 47                   48
|-------------------||-----------(5)-------------------||
|-------------------||---------------------------------||
|--2----------------||--2--------(2)-------------------||
|-------------------||---------------------------------||
|-------------------||---------------------------------||
|-------------------||---------------------------------||



The ghost note on the E-string in the last bar represents feedback and is not
played.



================================================================================
Riff 6a: Guitar 1 (Play once through) [ This is a variation of Riff 3a ]
================================================================================


  1                    2                        3
||--------------------|------------------------|-----------------------|
||--------------------|------------------------|-----------------------|
||--2--------4--------|--5-----------5-----(5)/| -9----9--7--7----7----|
||--2--------2--------|--2--------3-(3)-3--(3)/| -7----7--7--7----7----|
||--0--------0--------|--3---------------------|-----------------------|
||--------------------|------------------------|-----------------------|

 4                         5                     6
|-------------------------|---------------------|-------------------------|
|-------------------------|---------------------|-------------------------|
|-------------------------|---------------------|-------------------------|
|--7----7--10--9----9\  --|--2--------4----4----|--5----5-------5-----(5)/|
|--8----8-(8)--7----7\  --|--2--------2----2----|--2---(2)---3-(3)-3--(3)/|
|-------------------------|--0--------2---(2)---|--3---(3)----------------|

 7                       8                       9
|-----------------------|-----------------------|---------------------|
|-----------------------|-----------------------|---------------------|
|-----------------------|-----------------------|---------------------|
| -9----9--7--7----7----|-----------------------|--2--------4----4----|
| -7----7-(7)-7----7----|--7----7----9----9\  --|--2--------2----2----|
|-----------------------|--8----8----7----7\  --|--0--------2---(2)---|

 10                        11                      12
|-------------------------|-----------------------|-----------------------|
|-------------------------|-----------------------|-----------------------|
|-------------------------|-----------------------|-----------------------|
|--5----5-------5-----(5)/| -9----9--7--7----7----|-----------------------|
|--2---(2)---3-(3)-3--(3)/| -7----7-(7)-7----7----|--7----7----9----9\  --|
|--3---(3)----------------|-----------------------|--8----8----7----7\  --|

 13                   14                        15
|--------------------|-------------------------|-----------------------|
|--------------------|-------------------------|-----------------------|
|--2--------4--------|--5----5-------5-----(5)/| -9----9--7--7----7----|
|--2--------2--------|--2---(2)---3-(3)-3--(3)/| -7----7--7--7----7----|
|--0--------0--------|--3---(3)----------------|-----------------------|
|--------------------|-------------------------|-----------------------|

 16
|-------------------------||
|-------------------------||
|-------------------------||
|--7----7--10--9----9\  --||
|--8----8-(8)--7----7\  --||
|-------------------------||



================================================================================
Riff 6b: Guitar 2 (Play once through) [ This is a variation of Riff 3b ]
================================================================================


  1                    2                       3
||--------------------|-----------------------|-----------------------|
||--------------------|-----------------------|-----------------------|
||--2--------4--------|--5--------5----5--(5)/| -9----9--7--7----7----|
||--2--------2--------|--2--------3----3--(3)/| -7----7--7--7----7----|
||--0--------0--------|--3--------------------|-----------------------|
||--------------------|-----------------------|-----------------------|

 4                      5                    6
|----------------------|--------------------|------------------------|
|----------------------|--------------------|------------------------|
|----------------------|--------------------|------------------------|
|--7----7----9----9----|--2--------4--------|--5----5----5----5--(5)/|
|--8----8----7----7----|--2--------2--------|--2---(2)---3----3--(3)/|
|----------------------|--0--------2--------|--3---(3)---------------|

 7                       8                       9
|-----------------------|-----------------------|--------------------|
|-----------------------|-----------------------|--------------------|
|-----------------------|-----------------------|--------------------|
| -9----9--7--7----7----|-----------------------|--2--------4--------|
| -7----7--7--7----7----|--7----7----9---(9)\   |--2--------2--------|
|-----------------------|--8----8----7---(7)\   |--0--------2--------|

 10                       11                      12
|------------------------|-----------------------|-----------------------|
|------------------------|-----------------------|-----------------------|
|------------------------|-----------------------|-----------------------|
|--5----5----5----5--(5)/| -9----9--7--7----7----|-----------------------|
|--2---(2)---3----3--(3)/| -7----7--7--7----7----|--7----7----9----9\  --|
|--3---(3)---------------|-----------------------|--8----8----7----7\  --|

 13                   14                      15
|--------------------|-----------------------|-----------------------|
|--------------------|-----------------------|-----------------------|
|--2--------4--------|--5--------5----5--(5)/| -9----9--7--7----7----|
|--2--------2--------|--2--------3----3--(3)/| -7----7--7--7----7----|
|--0--------0--------|--3--------------------|-----------------------|
|--------------------|-----------------------|-----------------------|

 16
|----------------------||
|----------------------||
|----------------------||
|--7----7----9----9----||
|--8----8----7----7----||
|----------------------||



================================================================================
Guitars 1 & 2 play Riff 1 twice [ Tempo = 60 BPM ]
================================================================================

================================================================================
Guitars 1 and 2 end on the following:
================================================================================


||---------------||
||---------------||
||---------------||
||--2------------||
||--2------------||
||--0------------||



================================================================================
End
================================================================================


Tab summary:        Riff 1 X 2
                    Riff 2 X 3
                    Riff 3a + 3b X 1
                    Riff 4a X 1 + Riff 4b X 4
                    Riff 5 X 16 + Lead Riff 1 X 1
                    Riff 6a + 6b X 1
                    Riff 1 X 2

                    END

  Visit MetalTabs.com for more metal tablature

bottom separator

Contact Us | Privacy Policy | Disclaimer | Legal Notice
Copyright © 2001-2014 MetalTabs.com. All Rights Reserved.