top separator

Home

Forum

What's New

Submit a Tab

FAQ

Links

Contact Us

Link to Us

MuSpy.com

MetalTabs.com logo

Bands

0-9

A

B

C

D

E

F

G

H

I

J

K

L

M

N

O

P

Q

R

S

T

U

V

W

X

Y

Z

Search

What

Where
 

Jungle Rot - "Misplaced Anger" Bass Tab

Plain Text Version
More Jungle Rot Tabs

Hits: 1932
Updated: 2006-08-17 00:54:54

 

By:

epitaph

sendpm.gif

email.gif

Important note
This tab is available online because we obtained explicit permission from Jungle Rot or their label.


#----------------------------------PLEASE NOTE---------------------------------#
#This file is the author's own work and represents their interpretation of the #
#song. You may only use this file for private study, scholarship, or research. #
#Unless specified otherwise, this is NOT an official tab from the band members.#
#------------------------------------------------------------------------------#

  Visit MetalTabs.com for more metal tablature
  
Artist: Jungle Rot
Album: Dead & Buried
Song: Misplaced Anger

Copyright (c) Olympic Records 2001
Version 1.0 - 14th of June, 2006

Tabbed by: Lassi Nurminen (aka, epitaph)
E-Mail: gaborik10@hotmail.com / gaborik@welho.com

Tuning: BEAD

0:05
|---|
|---|
|---|
|-6-|

0:06
|---------------------------------|
|---------------------------------| Three
|---------------------------------| Times
|-2-1-2-3-2-1-2-3-2-1-2-3-2-1-4-5-|

0:30
|------------------------------------|
|------------------------------------| Three
|------------------------------------| Times
|-2221--2221--2221--2222222222222221-|

|------------------------|
|------------------------|
|------------------------|
|-2221--2221--2221--2221-|

0:54
|---------------------------------|
|---------------------------------| Twice
|---------------------------------|
|-2-1-2-3-2-1-2-3-2-1-2-3-2-1-4-5-|

1:06
|------------------------------------|
|------------------------------------| Three
|------------------------------------| Times
|-2221--2221--2221--2222222222222221-|

|------------------------|
|------------------------|
|------------------------|
|-2221--2221--2221--2221-|

1:31
|---------------------------------|
|---------------------------------| Four
|---------------------------------| Times
|-2-1-2-3-2-1-2-3-2-1-2-3-2-1-4-5-|

1:54
|---------------|
|---------------|
|---------------|
|-0---5---1---4-|

2:00
|-----------------------------------------------------------------|
|-----------------------------------------------------------------| Three
|-----------------------------------------------------------------| Times
|-0-0-0-0-0-0-0-0-5-5-5-5-5-5-5-5-1-1-1-1-1-1-1-1-4-4-4-4-4-4-4-4-|

2:18
|--------------------|
|--------------------| Twice
|--------------------|
|-0---5---1---4--3-1-|

2:29
|-----------------------------------------------------------------|
|-----------------------------------------------------------------|
|-----------------------------------------------------------------|
|-0-0-0-0-0-0-0-0-5-5-5-5-5-5-5-5-1-1-1-1-1-1-1-1-4-4-4-4-4-4-4-4-|

2:41
|--------------------|
|--------------------| Twice
|--------------------|
|-0---5---1---4--3-1-|

2:53
|-----------------------------------------------------------------|
|-----------------------------------------------------------------|
|-----------------------------------------------------------------|
|-0-0-0-0-0-0-0-0-5-5-5-5-5-5-5-5-1-1-1-1-1-1-1-1-4-4-4-4-4-4-4-4-|

|---------------------------------------------------|
|---------------------------------------------------|
|---------------------------------------------------|
|-0-0-0-0-0-0-0-0-5-5-5-5-5-5-5-5-1-1-1-1-1-1-1-1-4-|

3:04
|---------------------------------|
|---------------------------------| Four
|---------------------------------| Times
|-2-1-2-3-2-1-2-3-2-1-2-3-2-1-4-5-|

3:28
|------|
|------|
|------|
|-2221-|

Thats it!

  Visit MetalTabs.com for more metal tablature

bottom separator

Contact Us | Privacy Policy | Disclaimer | Legal Notice
Copyright © 2001-2014 MetalTabs.com. All Rights Reserved.