top separator

Home

Forum

What's New

Submit a Tab

FAQ

Links

Contact Us

Link to Us

MetalTabs.com logo

Bands

0-9

A

B

C

D

E

F

G

H

I

J

K

L

M

N

O

P

Q

R

S

T

U

V

W

X

Y

Z

Search

What

Where
 

As I Lay Dying - "Reflection" Guitar Tab

Plain Text Version
More As I Lay Dying Tabs

Hits: 2488
Rated: 1.00 out of 5 (1 vote)
Updated: 2006-08-17 00:44:17

 

By:

sendpm.gif

email.gif

Important note
This tab is available online because we obtained explicit permission from As I Lay Dying or their label.


#----------------------------------PLEASE NOTE---------------------------------#
#This file is the author's own work and represents their interpretation of the #
#song. You may only use this file for private study, scholarship, or research. #
#Unless specified otherwise, this is NOT an official tab from the band members.#
#------------------------------------------------------------------------------#

  Visit MetalTabs.com for more metal tablature
  
Band: As I Lay Dying
Album: Shadows Are Security
Song: Reflection

Transcribed by: Mikkel
Email: mikkelpickles@hotmail.com

Tuning: drop c
. = pm


INTRO

  alternate picking (triplets):
D|-------------------------------------------------------|
A|-------------------------------------------------------|
F|-------------------------------------------------------|
C|-------------------------------------------------------| x2
G|--8--10--7--5--10--8--7--5--8--10--7--5--12--10--8--7--|
C|-------------------------------------------------------|


  Guitar 1:
D|-------------------------------------------------------------------|
A|-------------------------------------------------------------------|
F|-------------------------------------------------------------------|
C|------------------7---------------8-----------------0-----0-----0--|
G|--8-5---------8-5---8-5-------8-5---8-5-------8-5------------------|
C|------000-000-----------0-000-----------0-000-----5---5-3---3-2----|
 |      ... ...           . ...           . ...     .   . .   . .
 |
 |Guitar 2
D|-------------------------------------------------------------------|
A|-------------------------------------------------------------------|
F|-------------------------------------------------------------------|
C|--0~------------------------------------------------0-----0-----0--|
G|--0~---------------------------------------------------------------|
C|--0~----------------------------------------------5---5-3---3-2----|
                                                    .   . .   . .

  Guitar 1:
D|-------------------------------------------------------------------|
A|-------------------------------------------------------------------|
F|-------------------------------------------------------------------|
C|------------------7---------------8-----------------------3---2h3--|
G|--8-5---------8-5---8-5-------8-5---8-5-------8-5---8--------------|
C|------000-000-----------0-000-----------0-000-----5---5-3---3------|
 |      ... ...           . ...           . ...     .   . .   .
 |
 |Guitar 2
D|-------------------------------------------------------------------|
A|-------------------------------------------------------------------|
F|-------------------------------------------------------------------|
C|--0~------------------------------------------------------3---2h3--|
G|--0~------------------------------------------------8--------------|
C|--0~----------------------------------------------5---5-3---3------|
                                                    .   . .   .


VERSE

  both guitars:
D|-------------------------------------------------------------------|
A|-------------------------------------------------------------------|
F|-------------------------------------------------------------------|
C|------------------7---------------8-----------------0-----0-----0--|
G|--8-5---------8-5---8-5-------8-5---8-5-------8-5------------------|
C|------000-000-----------0-000-----------0-000-----5---5-3---3-2----|
        ... ...           . ...           . ...     .   . .   . .
								       x2
D|-------------------------------------------------------------------|
A|-------------------------------------------------------------------|
F|-------------------------------------------------------------------|
C|------------------7---------------8-----------------------3---2h3--|
G|--8-5---------8-5---8-5-------8-5---8-5-------8-5---8--------------|
C|------000-000-----------0-000-----------0-000-----5---5-3---3------|
        ... ...           . ...           . ...     .   . .   .


CHORUS

  both guitars
D|---------------------------------------------------------------------|
A|---------------------------------------------------------------------|
F|---------------------------------------------------------------------|
C|-----------------------------------5-----5---------------------------|
G|--8-----8-----10---7---7---5---5---------------8---7---7---5---5-----|
C|----0-0---0-0----0---0---0---0---0---5-5---5-5---5---5---5---5---5---|
      . .   . .    .   .   .   .   .   . .   . .   .   .   .   .   .
                                                                              x2
D|--------------------------------------------------------------------------|
A|--------------------------------------------------------------------------|
F|--------------------------------------------------------------------------|
C|--------------------------------------------------------------------------|
G|--8-----8-----10---7---7---5---5---12-----12-----10---8----8----7----7----|
C|----0-0---0-0----0---0---0---0---0----8-8----8-8----8---10---10---10---10-|
      . .   . .    .   .   .   .   .    . .    . .    .   .    .    .    .


Guitar 2 in second half of chorus:

D|--------------------------------------------------------------------|
A|--------------------------------------------------------------------|
F|--------------------------------------------------------------------|
C|--7-----7-----8---5---5-----------8-----8-----7---5---5-------------|
G|--------------------------8---8---------------------------8---8-----|
C|----0-0---0-0---0---0---0---0---0---5-5---5-5---5---5---5---5---5---|
      . .   . .   .   .   .   .   .   . .   . .   .   .   .   .   .
                                                                              x2
D|----------------------------------------------------------------------------|
A|----------------------------------------------------------------------------|
F|----------------------------------------------------------------------------|
C|--7-----7-----8---5---5-----------10-----10-----8---------------------------|
G|--------------------------8---8---------------------12----12----10----10----|
C|----0-0---0-0---0---0---0---0---0----8-8----8-8---8----10----10----10----10-|
      . .   . .   .   .   .   .   .    . .    . .   .    .     .     .     .


BREAKDOWN

  Gtr 1 then 2:
D|-------------------|
A|-------------------|
F|-------------------|
C|-------------------| x2
G|-------------------|
C|--000-000-000-000--|
    ... ... ... ...

  Guitar 1:
D|-------------------------------------------------------------------|
A|-------------------------------------------------------------------|
F|-------------------------------------------------------------------|
C|-------------------------------------------------------------------| x4
G|-------------------------------------------------------------------|
C|--000-000-000-0-0-000-000-000-0-0-000-000-000-0-0-000-000-000-0-0--|
    ... ... ... . . ... ... ... . . ... ... ... . . ... ... ... . .

  Guitar 2:
D|-------------------------------------------------------------------|
A|-------------------------------------------------------------------|
F|-------------------------------------------------------------------|
C|----------------------------------------------------0-----0-----0--|
G|-------------------------------------------------------------------|
C|--000-000-000-0-0-000-000-000-0-0-000-000-000-0-0-5---5-3---3-2----|
    ... ... ... . . ... ... ... . . ... ... ... . . .   . .   . .
								       x2
D|-------------------------------------------------------------------|
A|-------------------------------------------------------------------|
F|-------------------------------------------------------------------|
C|----------------------------------------------------------3---2h3--|
G|----------------------------------------------------8--------------|
C|--000-000-000-0-0-000-000-000-0-0-000-000-000-0-0-5---5-3---3------|
    ... ... ... . . ... ... ... . . ... ... ... . . .   . .   .


LAST VERSE

Guitar 1 plays verse riff x4

  Guitar 2:
D|-------------------------------------------------------------------|
A|-------------------------------------------------------------------|
F|-------------------------------------------------------------------|
C|----------------------------------------------------0-----0-----0--|
G|-------------------------------------------------------------------|
C|------000-000-----------0-000-----------0-000-----5---5-3---3-2----|
        ... ...           . ...           . ...     .   . .   . .
                                                                       x4
D|-------------------------------------------------------------------|
A|-------------------------------------------------------------------|
F|-------------------------------------------------------------------|
C|----------------------------------------------------------3---2h3--|
G|----------------------------------------------------8--------------|
C|------000-000-----------0-000-----------0-000-----5---5-3---3------|
        ... ...           . ...           . ...     .   . .   .


After last chorus, end on

D|-----|
A|-----|
F|-----|
C|--3--|
G|--5--|
C|--0--|

  Visit MetalTabs.com for more metal tablature

bottom separator

Contact Us | Privacy Policy | Disclaimer | Legal Notice
Copyright © 2001-2014 MetalTabs.com. All Rights Reserved.