top separator

Home

Forum

What's New

Submit a Tab

FAQ

Links

Contact Us

Link to Us

MetalTabs.com logo

Bands

0-9

A

B

C

D

E

F

G

H

I

J

K

L

M

N

O

P

Q

R

S

T

U

V

W

X

Y

Z

Search

What

Where
 

Darkthrone - "Too Old, Too Cold" Guitar Tab

Plain Text Version
More Darkthrone Tabs

Hits: 13704
Rated: 4.33 out of 5 (6 votes)
Updated: 2006-06-26 07:51:50

 

By:

sendpm.gif

email.gif

Important note
This tab is available online because we obtained explicit permission from Darkthrone or their label.


#----------------------------------PLEASE NOTE---------------------------------#
#This file is the author's own work and represents their interpretation of the #
#song. You may only use this file for private study, scholarship, or research. #
#Unless specified otherwise, this is NOT an official tab from the band members.#
#------------------------------------------------------------------------------#

  Visit MetalTabs.com for more metal tablature
  
Darkthrone  album: Too old Too cold
            song:  Too old Too cold


Copyright Peaceville 2006
version 1.0 - 10.06.06

Transcribed By:Count Necro vel Plaga from Poland
Email: necro666@op.pl

standard tuning E

\   - slide down to
 /  - slide up to
 b  - Bend

riff1a
------------------------------------------------------------------------
------------------------------------------------------------------------
------------------------------------------------------------------------
-3\5-5-5-5-5-5-5-5-5--3\5-5-5-5-5--8-8-8-8-8/7-7-7----------------------
-3\5-5-5-5-5-5-5-5-5--3\5-5-5-5-5--6-6-6-6-6/5-5-5----------------------
-1\3-3-3-3-3-3-3-3-3--1\3-3-3-3-3---------------------------------------

riff1b
------------------------------------------------------------------------
------------------------------------------------------------------------
------------------------------------------------------------------------
-3\5-5-5-5-5-5-5-5-5--3\5-5-5-5-5--7-7-7-7-7/5-5-5----------------------
-3\5-5-5-5-5-5-5-5-5--3\5-5-5-5-5--5-5-5-5-5/3-3-3----------------------
-1\3-3-3-3-3-3-3-3-3--1\3-3-3-3-3---------------------------------------

riff2
------------------------------------------------------------------------
------------------------------------------------------------------------
------------------------------------------------------------------------
-5\7-7-7-7-7-7\8--8-8-8-8--5-5-8----5\7-7-7-7-7-7\8--8-8-8-8--5-5-8-----
-5\7-7-7-7-7-7\8--8-8-8-8--5-5-8----5\7-7-7-7-7-7\8--8-8-8-8--5-5-8-----
-3\5-5-5-5-5-5\6--6-6-6-6--3-3-6----3\5-5-5-5-5-5\6--6-6-6-6--3-3-6-----



riff3
------------------------------------------------------------------------
------------------------------------------------------------------------
------------------------------------------------------------------------
-------------------------------------------5b---------------------------
-7\10/9-9-9-9--10b--9b----7\10/9-9-9-9--3--3b---------------------------
-5\-8/7-7-7-7--8-b--7b----5\-8/7-7-7-7--1-------------------------------



riff4
-------------------------------------------------------------------------
-------------------------------------------------------------------------
-------------------------------------------------------------------------
------10b--------10b--------10b------------------------------------------
-7-7---8b---7-7---8b---7-7---8b----10/9-9-9\10\9\8-----------------------
-5-5--------5-5--------5-5----------8/7-7-7\-8\7\6-----------------------



There are some bendings due to this song but i think everybody would know where
they are}:->
Hail Satan!!!!!Hail Unholy Black Metal!!!!Hail DARKTHRONE!!!!!!!!!!
For any questions write to necro666@op.pl

  Visit MetalTabs.com for more metal tablature

bottom separator

Contact Us | Privacy Policy | Disclaimer | Legal Notice
Copyright © 2001-2014 MetalTabs.com. All Rights Reserved.