top separator

Home

Forum

What's New

Submit a Tab

FAQ

Links

Contact Us

Link to Us

MuSpy.com

MetalTabs.com logo

Bands

0-9

A

B

C

D

E

F

G

H

I

J

K

L

M

N

O

P

Q

R

S

T

U

V

W

X

Y

Z

Search

What

Where
 

Ihsahn - "Called by the Fire" Guitar Tab

Plain Text Version
More Ihsahn Tabs

Hits: 5229
Rated: 5.00 out of 5 (5 votes)
Updated: 2006-06-26 07:47:31

 

By:

Dahmers Fridge

sendpm.gif

email.gif

Co-authored by:

Otiz

sendpm.gif

email.gif

Important note
We did our best to reach Ihsahn and ask for their permission to publish this tab. Unfortunately they did not respond to our requests or we could not find a way to contact them. This tab is available online until Ihsahn tells us to take it down.


#----------------------------------PLEASE NOTE---------------------------------#
#This file is the author's own work and represents their interpretation of the #
#song. You may only use this file for private study, scholarship, or research. #
#Unless specified otherwise, this is NOT an official tab from the band members.#
#------------------------------------------------------------------------------#

  Visit MetalTabs.com for more metal tablature
  
Band:  Ihsahn
Album: Adversary
Song:  Called By the Fire

Copyright (c)  (Candlelight) (2006)
Version 1.0 - (03/06/06)

Transcribed By: Steve
Email:          stephen.elvidge1@ntlworld.com


.  - palm mute           /  - slide up to
\  - slide down to       ~  - vibrato
h  - hammer on           b  - Bend
p  - pull off            Suffixes for bend
t  - tap                 f  - full bend    h - half bend
ph - pinched harmonic    q  - quarter bend t - tap bend
                         p  - pre bend
*  - see comment         ^  - Hold bend    r release bend
x  - Stuccatto           ~  - vibrato bend
,  - slight palm mute    () - ghost note, sustained note
"  - tremolo note        <> - harmonic

Tuning E A D G B E

 Intro

 Guitar 1
 [PM]  [PM]  [PM]  [PM]   PM      [PM]  [PM]  [PM] [PM]       h h h
[-------------------------------------------------------------------|
[-----5----5-----5-----5\4-------------5----5-----5-----8-7-------4-|
[-----5----5-----5-----5\4-------------5----5-----5-----5-5-4-5-7---|
[\-----------------------------1/2----------------------------------|
[\0-0---00---0-0---0-0------00-2/3-0-0---00---0-0---0-0-------------|
[-------------------------------------------------------------------|
[Guitar 2                                        pick scrape
[-------------------------------------------------------------------|
[-------------------------------------------------------------------|
[-------------------------------------------------------------------|
[\2-2------------------------------------------------\-\------------|
[\0-0-------------------------------------------------\-\-----------|
[-------------------------------------------------------------------|

 Guitar 1
 [PM]  [PM]  [PM]  [PM]   PM      [PM]  [PM]  [PM] [PM]
[-------------------------------------------------------------------|
[-----5----5-----5-----5\4-------------5----5-----5-----8-7-----\---|
[-----5----5-----5-----5\4-------------5----5-----5-----5-5-----\---|
[----------------------------7\6\5----------------------------------|
[-0-0---00---0-0---0-0-----0-8\7\6-0-0---00---0-0---0-0-------------|
[-------------------------------------------------------------------|
[Guitar 2                                          [PM]     ~~~~
[-------------------------------------------------------------------|
[-------------------------------------------------------8-----------|
[---------------------------------------------------------9---------|
[\2-2-------------------------------------------------------10--\---|
[\0-0-----------------------------------------------0-0-------------|
[-------------------------------------------------------------------|


 Main Riff

 Guitar 1
 [PM]  [PM]  [PM]  [PM]   PM      [PM]  [PM]  [PM] [PM]       h h h
[-------------------------------------------------------------------|
[-----5----5-----5-----5\4-------------5----5-----5-----8-7-------4-|
[-----5----5-----5-----5\4-------------5----5-----5-----5-8-4-5-7---|
[------------------------------1/2----------------------------------|
[-0-0---00---0-0---0-0------00-2/3-0-0---00---0-0---0-0-------------|
[-------------------------------------------------------------------|
[Guitar 2
[[PM]  [PM]  [PM]  [PM]   PM      [PM]  [PM]  [PM] [PM]         h h
[-------------------------------------------------------------0-2-3-|
[-----5----5-----5-----5\4-------------5----5-----5-----8-7-4-------|
[-----5----5-----5-----5\4-------------5----5-----5-----5-5---------|
[------------------------------2/3----------------------------------|
[-0-0---00---0-0---0-0------00-----0-0---00---0-0---0-0-------------|
[-------------------------------------------------------------------|


 Guitar 1
 [PM]  [PM]  [PM]  [PM]   PM      [PM]  [PM]  [PM] [PM]
[-------------------------------------------------------------------|
[-----5----5-----5-----5\4-------------5----5-----5-----8-7-----\---|
[-----5----5-----5-----5\4-------------5----5-----5-----5-8-----\---|
[----------------------------7\6\5----------------------------------|
[-0-0---00---0-0---0-0-----0-8\7\6-0-0---00---0-0---0-0-------------|
[-------------------------------------------------------------------|
[Guitar 2
[[PM]  [PM]  [PM]  [PM]   PM      [PM]  [PM]  [PM] [PM]
[-------------------------------------------------------7-8-----\---|
[-----5----5-----5-----5\4-------------5----5-----5-----8-10----\---|
[-----5----5-----5-----5\4---5-4-3-----5----5-----5-----------------|
[-------------------------------------------------------------------|
[-0-0---00---0-0---0-0-----0-------0-0---00---0-0---0-0-------------|
[-------------------------------------------------------------------|

 Verse

 Guitar 1 Let notes ring out

[-------0-------------0-----------0---------------------------|
[-----4-----------------4-------4-----------------------------|
[---2---------------------4---2--------------44--22--00-------|
[-4-------------------------4------------------5---4---2-44---|
[-----------------------------------------------------------6-|
[-------------------------------------------------------------|
[ Guitar 2 Let notes ring out
[----------2---2----------------------------------------------|
[------------5---5--------------------------------------------|
[-------------------------------------------------------------|
[-------------------------------------------------------------|
[-------------------------------------------------------------|
[-------------------------------------------------------------|
[Guitar 3
[ [------------------------PM------------------------------]
[-------------------------------------------------------------|
[-------------------------------------------------------------|
[-------------------------------------------------------------|
[-------------------------------------------5---4---2---1-----|
[-2-2-2-2-2-2-2-2-2-2-0-2-3-2-2-2-2-2-2-2-2---7---6---3---3---|
[-------------------------------------------------------------|

 Guitar 1
 [PM]  [PM]  [PM]  [PM]   PM
[----------------------------------------------|
[-----5----5-----5-----5\4---------------------|
[-----5----5-----5-----5\4---------------------|
[------------------------------2\1/2-1-1-------|
[-0-0---00---0-0---0-0------00-3\2/3-2-2-------|
[----------------------------------------------|
[Guitar 2
[[PM]  [PM]  [PM]  [PM]   PM
[--------------------------------------------0-|
[-----5----5-----5-----5\4-----------------4---|
[-----5----5-----5-----5\4---------------2-----|
[------------------------------5-4-5-4-4-------|
[-0-0---00---0-0---0-0------00-----------------|
[----------------------------------------------|



 Guitar 1
[------------------------------------------------|
[------------------------------------------------|
[------------------------------------------------|
[-4-4---4-4--4-4---------222-444-5---4---2---1---|
[-2-2---2-2--2-2--4-4--------------7---6---3---3-|
[-----------------2-2----------------------------|
[Guitar 2
[----10------0-----0-----------------------------|
[--12------------4-------------------------------|
[--------------5-----2---555-777-44--22--00------|
[----------------------5-----------5---4---2-44--|
[----------------------------------------------6-|
[------------------------------------------------|

 Guitar 1
 [PM]  [PM]  [PM]  [PM]   PM
[----------------------------------------------------------|
[-----5----5-----5-----5\4---------------------------------|
[-----5----5-----5-----5\4---------------------------------|
[------------------------------1/2-------------------------|
[-0-0---00---0-0---0-0------00-2/3-2--3--2-----------------|
[----------------------------------------------------------|
[Guitar 2
[[PM]  [PM]  [PM]  [PM]   PM   [-----------PM-------------]
[----------------------------------------------------------|
[-----5----5-----5-----5\4---------------------------------|
[-----5----5-----5-----5\4---------------------------------|
[------------------------------1-2-3-3-3-3-3-3-3-3-3-3-3-3-|
[-0-0---00---0-0---0-0------00-----------------------------|
[----------------------------------------------------------|

 Bridge

 Guitar 1
 [--------------------------PM---------------------------]
[---------------------------------------------------------|
[---------------------------------------------------------|
[---------------------------------------------------------|
[---------------------------------------------------------|
[-2-2-2-3-3-3-5-5-5-5-5-5-5-5-5-5-5-5-5-5-5-5-5-5-5-\-----|
[---------------------------------------------------------|
[Guitar 2
[[--------------------------PM---------------------------]
[---------------------------------------------------------|
[---------------------------------------------------------|
[---------------------------------------------------------|
[---2-----------------------------------------------------|
[-5---5---------------------------------------------------|
[-------1-1-1-0-0-0-0-0-0-0-0-0-0-4-4-4-5-5-5-4-4-4-0-0-0-|

 Guitar 1
[---------------------------------|
[---------------------------------|
[---------------------------------|
[----------3---------2--0-2-3-\---|
[-2--3--2-----2-3-5---------------|
[---------------------------------|
[Guitar 2
[              ~~~
[---------------------------------|
[---------------------------------|
[---------------------------------|
[--------------------5------------|
[-3--3---------------3--5-3-5-\---|
[-1--1--0-----4b--1-----5-3-5-\---|

 Chorus

 Guitar 1
[----------------------------------------------------|
[---------------------------------------1----1-3-1---|
[-7fb--7-5-2-4-2-5------------7/9/10\----------------|
[----------------------------------------------------|
[-----------------------------5/7/8-\3-----2---------|
[----------------------------------------------------|
[Guitar 2
[----------------------------------------------------|
[----------------------------------------------------|
[----------------------------------------------------|
[----------2-2-2--------------7-----\5--5------------|
[----x\----0-0-0-3--------3---5-----\3--3--2---------|
[----x\----------1----1-1-1--------------------------|

 Guitar 1
[--------------------------------------------|
[------------------------------1-------------|
[-2-4-2-5------------7/9/10\---------4-------|
[--------------------------------------------|
[--------------------5/7/8-\3------2---------|
[--------------------------------------------|
[Guitar 2
[--------------------------------------------|
[---0-0--------------------------------------|
[---2-2--------------------------------------|
[-2-2-2--------------7-----\5--5-------------|
[-0-0-0-3--------3---5-----\3--3---2---------|
[-------1----1-1-1---------------------------|
[Guitar 3                      h
[--------------------------------------------|
[---------------------------8-10p8-----------|
[--------------------4---\---------9---------|
[--------------------------------------------|
[--------------------------------------------|
[--------------------------------------------|

 Guitar 1
[--------------------------------------------|
[------------------------------0-1----0-1----|
[-2-4-2-5------------7/9/10\-----------------|
[--------------------------------------------|
[--------------------5/7/8-\3-------2--------|
[--------------------------------------------|
[Guitar 2
[--------------------------------------------|
[---0-0--------------------------------------|
[---2-2--------------------------------------|
[-2-2-2--------------7-----\5---5------------|
[-0-0-0-3--------3---5-----\3---3---2--2-----|
[-------1----1-1-1---------------------------|
[Guitar 3                            ~~~~~
[--------------------------------------------|
[---------------------------5-5-5-5-8--------|
[--------------------4---\-------------------|
[--------------------------------------------|
[--------------------------------------------|
[--------------------------------------------|


 Guitar 1
[---------------------------------------|
[---------------------------------------|
[-2--4--2-------------------------------|
[----------3------------------3--5--7\--|
[-------------5-------------------------|
[---------------------------------------|
[Guitar 2
[---------------------------------------|
[----0--0-------------------------------|
[----2--2-----------10------(10)--------|
[-2--2--2-----------10------(10)--------|
[-0--0--0--3--------8-------(8)---------|
[----------1----------------------------|
[Guitar 3
[----------------------------13-15-17\--|
[-10-12-10-13-12------------------------|
[-------------------10------------------|
[---------------------------------------|
[---------------------------------------|
[---------------------------------------|


 Interlude

 Cleanish guitar

 Riff A

|---------0--------|
|-------4---4------|
|-----6-------6----|
|---6-----------6--|
|-0----------------|
|------------------| Rpt 4 X

 Riff B
|---------0--------|
|-------4---4------|
|-----5-------5----|
|---3-----------3--|
|-3----------------|
|------------------| Rpt 4 X

 Guitar solo

  C#
  ~~~~~~~~~~~~~~
|---------------------------------------|
|-9-------------7p5--9p7--10-9--12p10---|
|---------------------------------------|
|---------------------------------------|
|---------------------------------------|
|---------------------------------------|

  C
   ~~~~~~~~~~~~~~
|-------------------------20----------------------------------|
|-13-------------\-/17-18----18-17-18-20-18-17\15\13-12-13-15-|
|-------------------------------------------------------------|
|-------------------------------------------------------------|
|-------------------------------------------------------------|
|-------------------------------------------------------------|

 C #
   ~~~~~~~~~~~~~~
|-------------------|
|-17----------------|
|-------------------|
|-------------------|
|-------------------|
|-------------------|

 Rpt Riff A 4 X
 Rpt riff B 4 X


 Guitar 1
[-------------------------------------|
[-------------------------------------|
[-------7--5--------------------------|
[-5-/6--------6--5--3--2--------------|
[-------------------------------------|
[-------------------------------------|
[Guitar 2
[-12-10-13-12-10----------------------|
[----------------13-12----------------|
[----------------------9-------\------|
[-------------------------------------|
[-------------------------------------|
[-------------------------------------|

 Rpt Riff A 4 X
 Rpt Riff B 4 X

 Guitar 1(bass implies the root)
[---------0---------------0---------------0---------------0-------|
[-------4---4-----------4---4-----------4---4-----------4---4-----|
[-----6-------6-------6-------6-------6-------6-------6-------6---|
[---6-----------6---6-----------6---6-----------6---6-----------6-|
[-0---------------------------------------------------------------|
[-----------------4---------------3---------------2---------------|
[Guitar 2
[  ~~~~~~~~~~~~~~~~~~~~~~~~~~~~~~~~~~~~~~~~~~~~~~~~~~~~~~~~~~~~~~~
[-----------------------------------------------------------------|
[-----------------------------------------------------------------|
[-14--------------13--------------12--------------11--------------|
[-----------------------------------------------------------------|
[-----------------------------------------------------------------|
[-----------------------------------------------------------------|

 Guitar 1
[---------0---------------0-------------0----|
[-------4---4-----------4---4-------1-0---1--|
[-----6-------6-------6-------6--------------|
[---6-----------6---6-----------6------------|
[--------------------------------------------|
[-1---------------1---------------1----------|
[Guitar 2
[ ~~~~~~~~~~~~~~~
[----------------------13--------------------|
[-----------------13---------13--------------|
[-10------------------------------10---------|
[--------------------------------------------|
[--------------------------------------------|
[--------------------------------------------|


 Guitar 1
[-------------------------|
[-------------------------|
[-------------------------|
[------------2--0--3------|
[-3-3--3--2---------------|
[-1-1---------------------|
[Guitar 2
[------------17-15-20--\--|
[------17-15--------------|
[-------------------------|
[-------------------------|
[-------------------------|
[-------------------------|

 Rpt Main Riff
 Rpt Verse

 Guitar 1                   [-PM-]
[-----------------------------------------------------|
[-----------------------------------------------------|
[-----------------------------------------------------|
[-4-4---4-4--4-4--2----------4-5-4-4-5p4-5p4-5p4-5p4--|
[-2-2---2-2--2-2--2--2-3-2-3--------------------------|
[-----------------------------------------------------|
[Guitar 2
[----10------0-----0----------------------------------|
[--12------------4-------------5----------------------|
[--------------5-----2-----------5---5p4-5p4-5p4-5p4--|
[----------------------5------------------------------|
[-----------------------------------------------------|
[-----------------------------------------------------|

 Guitar 1
[-------------------------|
[-------------------------|
[-------------------------|
[-222-444-5---4---2---1---|
[-----------7---6---3---3-|
[-------------------------|
[Guitar 2
[-------------------------|
[-------------------------|
[-555-777-44--22--00------|
[-----------5---4---2-44--|
[-----------------------6-|
[-------------------------|

 Rpt Bridge
 Rpt Chorus

 Guitar solo

 C#
                       ph~~~~              ph~~~~        ph~~~~
|---------------------------------------------------------------|
|-7b--7fb--r----------------------------------------------------|
|------------6-5---5-------------------8-6-6--------------------|
|----------------8---6-5----\-------------------6---8-5-6-------|
|-----------------------------4-6-6-4-------------8-------3-----|
|------------------------------------------------------------1--|


|---------------------------------|
|--------------------------6------|
|--------------------6-5-8b--10b--|
|--------------6-5-3--------------|
|-------/3-2-1--------------------|
|-3-2-1---------------------------|

 Riff C
 [-------PM------]
|-----------------|
|-----------------|
|-----------------|
|-----------------|
|-----------------|
|-6-9-8-7-6-5\4/5-|Rpt 4 X

 [----PM---]
|-----------------|
|-----------------|
|-----------------|
|-----------------|
|-----------8-7-6-|
|-6-9-8-7-6-------|

 Rpt above

  With wah
   ~~~~~~~        h   h
|----------------------------------------------------|
|----------------------------------------------------|
|-10fb---10-8p6---8p6-8p6--pick scrape---0\-tem dive-|
|---------------8------------------------------------|
|----------------------------------------------------|
|----------------------------------------------------|

                     ~~~~~
|-13-------12--------------------------------------------------|
|----12-11----11----15fb-r14-----------------------------------|
|----------------10----------15-13-10----10-9-8---9-8-6-99-8-6-|
|--------------------------------------8--------8--------------|
|--------------------------------------------------------------|
|--------------------------------------------------------------|


              h     h    h      h                      ~~~
|------------------------------------------18---18-21-22b--|
|-9-8-----11-14p11-14p11-14p11-14p11-14-16----16-----------|
|-----6----------------------------------------------------|
|----------------------------------------------------------|
|----------------------------------------------------------|
|----------------------------------------------------------|

 C#
    ~~~~~~~
|-r20------18-20p18\16-16-15-16-13-------13----13-15-13-20-21----20-21-|
|-------------------------------------11----12----------------16-------|
|----------------------------------10----------------------------------|
|----------------------------------------------------------------------|
|----------------------------------------------------------------------|
|----------------------------------------------------------------------|


|----20-21p20-18\16-18-20-21p20----20-21p20--|
|-16----------------------------22-----------|
|--------------------------------------------|
|--------------------------------------------|
|--------------------------------------------|
|--------------------------------------------|

        [-PM-]
|-------------|
|-------------|
|-------------|
|-8--8--------|
|-8--8--11109-|
|-6--6--9-8-7-| Rpt 4 X

 [-----PM-----]
|---------------|
|---------------|
|---------------|
|---------------|
|---------------|
|-1-4-3-2-1-0-1-|Rpt 4 X

 [----PM---]
|-----------------|
|-----------------|
|-----------------|
|-----------------|
|-----------4-3-2-|
|-1-4-3-2-1-------|

                 ~~~~~~~~~~~~~~~~~~    h    h     h     h
|-22fb--22fb---r21-----------------------------------------------|
|----------------------------------11-14p11-14p11-14p11-14p11----|
|-------------------------------------------------------------13-|
|----------------------------------------------------------------|
|----------------------------------------------------------------|
|----------------------------------------------------------------|

  h        h         h              h        h        h
|-------------------------------13-16p13----16p13----16p13----|
|-14p11----14p11----14p11----16----------16-------16-------16-|
|-------13-------13-------13----------------------------------|
|-------------------------------------------------------------|
|-------------------------------------------------------------|
|-------------------------------------------------------------|

      h     h     ~~~~~~~~~~~~~~~~~~~~~~~~~~~~~~~~~~~~~~~~~~~~~~~~~~
|-13-16p13-16p13-16fb----------------------r16b---------------------|
|-------------------------------------------------------------------|
|-------------------------------------------------------------------|
|-------------------------------------------------------------------|
|-------------------------------------------------------------------|
|-------------------------------------------------------------------|


 Guitar 1
[---------------------------------------------|
[---------------------------------------------|
[---------------------------------------------|
[---------------------------------------------|
[-2-2----2-2----2-2----2-2----2-2----2-2------|
[-0-0----0-0----0-0----0-0----0-0----0-0------|
[Guitar 2(let notes ring out)
[---------------------------------------------|
[-------0-------------------------------------|
[-----3------------------------------3-4-3----|
[---2------------------------------2-------3--|
[---------------------------------------------|
[---------------------------------------------| Rpt

 Guitar 1
[---------------------------|
[---------------------------|
[---------------------------|
[----------------------2--3-|
[-3--3--5--3--5--3--5-------|
[-1-------------------------|
[Guitar 2
[---------------------------|
[---------------------------|
[-------5--4--5-------------|
[---3-----------------------|
[---------------------------|
[---------------------------|
[Guitar 3
[------------------------15-|
[---------------13----13----|
[------12----12----12-------|
[---10----10----------------|
[---------------------------|
[---------------------------|


 Slower solo played over the chorus riff

   ~~~~~~~~~~~~~~~~~~~~~~~~~~
|-16fb---r--15---------------151515-1313\12-13----------------------|
|----------------------------------------------15fb------15fb--r15p-|
|-------------------------------------------------------------------|
|-------------------------------------------------------------------|
|-------------------------------------------------------------------|
|-------------------------------------------------------------------|

     ~~~~~~                         [--------PM-------]
|-------------------------------------------------------------------|
|-13----------------------------5-6---------------5-6-8-10-12-13-12-|
|----14----\--7b-7brp5------------------------5-7-------------------|
|----------------------7------------------5-7-----------------------|
|-------------------------5p3-5-----5-7-8---------------------------|
|-------------------------------------------------------------------|


|-------------------------------------------------------------------|
|-(12)--13-----13-12-10-12-13-12--13-12-10-12-8-10-10p8-------5-6-5-|
|----------9--------------------------------------------9---7-------|
|-------------------------------------------------------------------|
|-------------------------------------------------------------------|
|-------------------------------------------------------------------|

 Harmonised section

 Guitar 1
[---------------------------8-10-8-------------------|
[----------------------------------10-8--------------|
[-5-7-5-7/9---7--5--7-----\-------------10-9-7-9-7-5-|
[----------------------------------------------------|
[----------------------------------------------------|
[----------------------------------------------------|
[Guitar 2
[----------------------------------------------------|
[---------8------------------------------------------|
[-9-10-9------10-9--10----\--------------------------|
[----------------------------------------------------|
[----------------------------------------------------|
[----------------------------------------------------|

 Rpt Chorus



END

  Visit MetalTabs.com for more metal tablature

bottom separator

Contact Us | Privacy Policy | Disclaimer | Legal Notice
Copyright © 2001-2014 MetalTabs.com. All Rights Reserved.