top separator

Home

Forum

What's New

Submit a Tab

FAQ

Links

Contact Us

Link to Us

MuSpy.com

MetalTabs.com logo

Bands

0-9

A

B

C

D

E

F

G

H

I

J

K

L

M

N

O

P

Q

R

S

T

U

V

W

X

Y

Z

Search

What

Where
 

Blood Freak - "Axe of Violence" Guitar Tab

Plain Text Version
More Blood Freak Tabs

Hits: 1843
Updated: 2006-06-26 07:27:52

 

By:

Licky Webster

sendpm.gif

email.gif

Important note
This tab is available online because we obtained explicit permission from Blood Freak or their label.


#----------------------------------PLEASE NOTE---------------------------------#
#This file is the author's own work and represents their interpretation of the #
#song. You may only use this file for private study, scholarship, or research. #
#Unless specified otherwise, this is NOT an official tab from the band members.#
#------------------------------------------------------------------------------#

  Visit MetalTabs.com for more metal tablature
  
Blood Freak
Live Fast, Die Young and Leave a Flesh-Eating Corpse
Axe of Violence

Copyright (c)  Razorback Records 2006
Version 1.0 - 30.5.2006

Transcribed By: Yaniv D.
Email:          lickywebster@yahoo.com


.  - palm mute           /  - slide up to
\  - slide down to       ~  - vibrato
h  - hammer on           b  - Bend
p  - pull off            Suffixes for bend
t  - tap                 f  - full bend    h - half bend
ph - pinched harmonic    q  - quarter bend t - tap bend
*  - see comment         ^  - Hold bend    r release bend
x  - Stuccatto           ~  - vibrato bend
,  - slight palm mute    () - ghost note, sustained note
"  - tremolo note        <> - Trill

Tuning is B

Intro
|---------------------------------|
|---------------------------------|
|---------------------------------|
|---------------------------------|================|
|-2---2-3-2---2-3-2---2-3-6---4---|                |
|-0---0-1-0---0-1-0---0-1-4---2---|                |
      . .     . .     . .                          |
                                                   |
|-------------------------------------------|      |
|-------------------------------------------|      |
|-------------------------------------------|      |
|-------------------------2-----------------|      |
|-2---2-3-2---2-3-2---2-3---5-2-5-2-1-------|      |
|-0---0-1-0---0-1-0---0-1-------------2hb---|      |
      . .     . .     . .                          |
                                                   | x2
|---------------------------------|                |
|---------------------------------|                |
|---------------------------------|                |
|---------------------------------|                |
|-2---2-3-2---2-3-2---2-3-6---4---|                |
|-0---0-1-0---0-1-0---0-1-4---2---|                |
      . .     . .     . .                          |
                                                   |
|----------------------------------------------|   |
|----------------------------------------------|   |
|-------------------------------------0h2p0h2--|   |
|-------------------------2--------------------|===|
|-2---2-3-2---2-3-2---2-3---5-2-5-2-1----------|
|-0---0-1-0---0-1-0---0-1----------------------|
      . .     . .     . .

Intro lead 0:02 - 0:12               quick slide
|----------------------------12------12/15--------------|
|-10----hb-10---------------------------------14--------|
|---------------12-9------------------------------------|
|-------------------------------------------------------|
|-------------------------------------------------------|
|-------------------------------------------------------|

Riff A x4
|--------------------------------|
|--------------------------------|
|--------------------------------|
|---------9-7-------------555----|
|-2-----2-7-5--9-88---88--555----|
|-0-----0------7-66---66--333----|

Riff B x2
|---------------------------------------------------------------|
|---------------------------------------------------------------|
|---------------------------------------------------------------|
|-------------------------------------------------------3-------|
|-2-----3----------3-2-2-----6-5-2-----3----------3-2-2-1---4---|
|-0-000-1--0000000-1-0-0-3-4-----0-000-1--0000000-1-0-0-----2---|
    ...    .......   . .           ...    .......   . .

Riff C x2
|----------------------------------|
|----------------------------------|
|----------------------------------|
|-------------5-4-------------7-4--|
|-5-8-5-8-8-5-3-2-5-8-5-8-8-5-5-2--|
|-3-6-3-6-6-3-----3-6-3-6-6-3------|

Riff B x4

End with
|---------|
|---------|
|---------|
|---------|
|-2-------|
|-0-------|

Outro lead 1:07 - 1:18   With Wha pedal (a bit hard to follow)
|-12<15>--------------------------------------------------------------------|
|---------17p15h17--15p13h15p13---------------------------------------------|
|-------------------------------14p12h14hb--12h14p12----------12------------|
|----------------------------------------------------14ph-p12----14ph-12ph~ |
|---------------------------------------------------------------------------|
|-1:07----1:09------------------1:10--------1:11----------------------1:12--|


|-1:12--------------------------1:14--------------------1:15----------1:16--|
|---------------------------------------------------------------------------|
|-------14-------14-------14-------------14------------------------------ph-|
|-14h17----14h17----14h17----14h17p14-------17p14-14h17p14------------19-14~|
|-------------------------------------17-------------------17p15h17hb-------|
|---------------------------------------------------------------------------|


|-1:17------------------1:18-----------------------------------|
|-----------------------------------15<17>-17-15h17p15---------|
|-ph----------------------------------------------------16-----|
|-14-----------------------------------------------------------|
|------17-14-17---12----12-------------------------------------|
|--------------------15----15-12-15----------------------------|

END

  Visit MetalTabs.com for more metal tablature

bottom separator

Contact Us | Privacy Policy | Disclaimer | Legal Notice
Copyright © 2001-2014 MetalTabs.com. All Rights Reserved.