top separator

Home

Forum

What's New

Submit a Tab

FAQ

Links

Contact Us

Link to Us

MetalTabs.com logo

Bands

0-9

A

B

C

D

E

F

G

H

I

J

K

L

M

N

O

P

Q

R

S

T

U

V

W

X

Y

Z

Search

What

Where
 

Blood Freak - "Toxic Tomb" Guitar Tab

Plain Text Version
More Blood Freak Tabs

Hits: 1801
Updated: 2006-06-26 07:27:27

 

By:

Licky Webster

sendpm.gif

email.gif

Important note
This tab is available online because we obtained explicit permission from Blood Freak or their label.


#----------------------------------PLEASE NOTE---------------------------------#
#This file is the author's own work and represents their interpretation of the #
#song. You may only use this file for private study, scholarship, or research. #
#Unless specified otherwise, this is NOT an official tab from the band members.#
#------------------------------------------------------------------------------#

  Visit MetalTabs.com for more metal tablature
  
Blood Freak
Live Fast, Die Young... And Leave A Flesh-Eating Corpse
Toxic Tomb

Copyright (c)  Razorback Records 2006
Version 1.0 - 29.5.2006

Transcribed By: Yaniv D.
Email:          lickywebster@yahoo.com


.  - palm mute           /  - slide up to
\  - slide down to       ~  - vibrato
h  - hammer on           b  - Bend
p  - pull off            Suffixes for bend
t  - tap                 f  - full bend    h - half bend
ph - pinched harmonic    q  - quarter bend t - tap bend
*  - see comment         ^  - Hold bend    r release bend
x  - Stuccatto           ~  - vibrato bend
,  - slight palm mute    () - ghost note, sustained note
"  - tremolo note        <> - Trill

Tuning is B

Riff A x2
|--------------------------------------------------|
|--------------------------------------------------|
|-7------8---------10-8-7-8-7------8---------------|
|-7------8---------10-8-7-8-7------8---------------|
|---5"-----5"-----------------5"-----5"------9-10--|
|--------------------------------------------7-8---|
    .      .                  .      .

Riff B x2
|-----------------------------------------|
|-----------------------------------------|
|-----------------------------------------|
|---------------------------------11"-10"-|
|-----------------------------------------|
|-4"---5"-----10"-9"-8"---9"--------------|
  .    .       .  .  .    .

Riff C x4                   1,3        2,4
|---------------------------|-------5~ |-3h5p3----|
|---------------------------|-3h5p3----|-------5--|
|---------------------------|----------|----------|
|-7---8---5-----------------|----------|----------|
|-5-5-7-5---6-5-10\7-10\7-7-|----------|----------|
|---------------8-\5-8-\5-5-|----------|----------|
    .   . . . .

Riff D x2
|L
|-t----t----t----t----t----t----t----t----t----t----t----t----t----t----14fb-|
|-17p0-13p0-12p0-13p0-15p0-13p0-12p0-13p0-17p0-13p0-12p0-13p0-15p0-13p0------|
|----------------------------------------------------------------------------|
|----------------------------------------------------------------------------|
|----------------------------------------------------------------------------|
|----------------------------------------------------------------------------|
|
|R
|----------------------------------------------------------------------------|
|----------------------------------------------------------------------------|
|----------------------------------------------------------------------------|
|----------------------------------------------------------------------------|
|-9/10-9/10-12-10-9-10-7/9-7/9-12-12-12-12-9/10-9/10-12-10-9-10-7/9-7/9------|
|-7/8--7/8--10-8--7-8--5/7-5/7-10-10-10-10-7/8--7/8--10-8--7-8--5/7-5/7-10"--|

Riff E x2
|---------------------------------------------------|
|---------------8"-7"-------------------------------|
|-4"---54"------------8"-7"-4"---54"------7"----6"--|
|---------------------------------------------------|
|--------------------------------------5"----4"-----|
|---------------------------------------------------|

Riff F1 x1
|----------------------------------------------*--------11fb-----------|
|----------------------------------------------*-Played by 2nd guitar--|
|----------------------------------------------------------------------|
|-4-----------------------8--8--4-------4-------4-------------7--------|
|-2-------5-------5-------6--6--2---2-2-2---2-2-2---2-2-5/7\5-5--------|
|-----333-3---333-3---333-------------------------------3/5\3----------|
      ...     ...     ...           . .     . .     . .

Riff F2 x1
|----------------------------------------------*--------11fb-----------|
|----------------------------------------------*-Played by 2nd guitar--|
|----------------------------------------------------------------------|
|-4-----------------------8--8--4-------4-------4-------------9--------|
|-2-------5-------5-------6--6--2---2-2-2---2-2-2---2-2-5/7\5-7--------|
|-----333-3---333-3---333-------------------------------3/5\3----------|
      ...     ...     ...           . .     . .     . .

Gtr 1 plays riff E x2
While gtr 2 plays
Riff G x2
|--------------------------------------------------|
|--------------------------------------------------|
|--------------------------------------------------|
|-9------------------------9--------12-------11----|
|-9------------------------9--------12-------11----|
|-7------------------------7--------10-------9-----|

Both continue
Riff F2 x2

Riff H1 x2
|-------------------------------------------------------------------|
|-------------------------------------------------------------------|
|-------------------------------------------------------------------|
|-------10---9-----------12~ -9---------10---9----------------------|
|-9---9----------12---12----------9---9----------7---7-7---7-7-7----|
|-7--------------10---------------7--------------5---5-5---5-5-5----|
      .               .               .              .     . . .

Left gtr plays Riff H1 x2
While right guitar plays
Riff H2 x2
|-------------------------------------------------------------------|
|-------------------------------------------------------------------|
|-------12---11----------14---11--------12---11---------------------|
|-------10---9-----------12---9---------10---9----------------------|
|-9---9----------12---12----------9---9----------7---7-7---7-7-7----|
|-7--------------10---------------7--------------5---5-5---5-5-5----|
      .               .               .              .     . . .

Both continue

Riff I x4                 1,3        2,4
|-------------------------|----------|-----------------|
|-------------------------|----------|-----------------|
|-------------------------|----------|-----------------|
|-7---7/8-7---7/8-7---7/8-|-11-8-7-8-|-----10------9---|
|-5---5/6-5---5/6-5---5/6-|-9--6-5-6-|-10--10--9---9---|
|-------------------------|----------|-8---8---7---7---|

Riff A x2

Riff J x2
|--------------------------------------------------|
|--------------------------------------------------|
|--------------------------------------------------|
|--------------------------------------------------|
|-7------8---------10-8-7-8-7------8---------4-5---|
|-5-5"---6-5"------8--6-5-6-5-5"---6-5"------2-3---|
    .      .                  .      .

End with
|-----------|
|-----------|
|-----------|
|-----------|
|-2---------|
|-0---------|

END

  Visit MetalTabs.com for more metal tablature

bottom separator

Contact Us | Privacy Policy | Disclaimer | Legal Notice
Copyright © 2001-2014 MetalTabs.com. All Rights Reserved.