top separator

Home

Forum

What's New

Submit a Tab

FAQ

Links

Contact Us

Link to Us

MetalTabs.com logo

Bands

0-9

A

B

C

D

E

F

G

H

I

J

K

L

M

N

O

P

Q

R

S

T

U

V

W

X

Y

Z

Search

What

Where
 

Cypher - "Forward Devolution" Guitar Tab

Plain Text Version
More Cypher Tabs

Hits: 1337
Updated: 2006-06-26 07:26:47

 

By:

Woutjinho

sendpm.gif

email.gif

Important note
This tab is available online because we obtained explicit permission from Cypher or their label.


#----------------------------------PLEASE NOTE---------------------------------#
#This file is the author's own work and represents their interpretation of the #
#song. You may only use this file for private study, scholarship, or research. #
#Unless specified otherwise, this is NOT an official tab from the band members.#
#------------------------------------------------------------------------------#

  Visit MetalTabs.com for more metal tablature
  
Band:  Cypher
Album: Forward Devolution
Song:  Forward Devolution

Copyright (c)  /
Version 1.0 - 21 May 2006

Transcribed By: Woutjinho
Email:          woutjinho@hotmail.com


.  - palm mute           /  - slide up to
\  - slide down to       ~  - vibrato
h  - hammer on           b  - Bend
p  - pull off            Suffixes for bend
t  - tap                 f  - full bend    h - half bend
ph - pinched harmonic    q  - quarter bend t - tap bend
*  - see comment         ^  - Hold bend    r release bend
x  - Stuccatto           ~  - vibrato bend
,  - slight palm mute    () - ghost note, sustained note
"  - tremolo note        <> - Trill

Tuning D G C F A D

Intro: 4/4
||---------------------|-------------------|
||o--------------------|-------------------|
||---------------------|-------------------|
||---------------------|---7----6----5-5-5-|
||o----8-8----7----5-5-|-5---00---00-------|
||--00-----00---00-----|-------------------|

|-----------------------|---------------------------||
|-----------------------|--------------------------o||
|-----------------------|---------------------------||
|-----------------------|---------------------------||
|-----8-8-----7-----5-5-|-5-/5-0-0-7-0-0-8-0-0-7---o||
|-0-0-----0-0---0-0-----|---------------------------|| x4

Verse (1):                                       3/4
|----------------------|------------------------|---------------|
|----------------------|------------------------|---------------|
|----------------------|------------------------|---------------|
|----------------------|------7777-----5555-----|-3333----------|
|-5s3--2-5s3--2-2-2-2--|-2-2-------8-8------7-7-|------5-5-5-5--|
|-3s1-00-3s1-00-0-0000-|-0000-------------------|---------------|

|----------------------|------------------------|---------------|
|----------------------|------------------------|---------------|
|----------------------|------------------------|---------------|
|----------------------|------------------------|---------------|
|-5s3--2-5s3--2-2-2-2--|-2-2--7777-----5555-----|-3333----------|
|-3s1-00-3s1-00-0-0000-|-0000------8-8------7-7-|------5-5-5-5--|

|----------------------|------------------------|---------------|
|----------------------|------------------------|---------------|
|----------------------|------------------------|---------------|
|----------------------|------7777-----5555-----|-3333----------|
|-5s3--2-5s3--2-2-2-2--|-2-2-------8-8------7-7-|------5-5-5-5--|
|-3s1-00-3s1-00-0-0000-|-0000-------------------|---------------|

|-------------------|------------------------|---------------|
|-------------------|------------------------|---------------|
|-------------------|------------------------|---------------|
|-------------------|------------------------|---------------|
|-5s3--2-5s3--2-----|------7777-----5555-----|-3333----------|
|-3s1-00-3s1-00-x\--|-(x)\------8-8------7-7-|------5-5-5-5--|

Chorus:
||---------------------|-------------------|
||o--------------------|-------------------|
||---------------------|-------------------|
||---------------------|---7----6----5-5-5-|
||o----8-8----7----5-5-|-5---00---00-------|
||--00-----00---00-----|-------------------|

|-----------------------|---------------------------||
|-----------------------|--------------------------o||
|-----------------------|---------------------------||
|-----------------------|---------------------------||
|-----8-8-----7-----5-5-|-5-/5-0-0-7-0-0-8-0-0-7---o||
|-0-0-----0-0---0-0-----|---------------------------|| x4

Verse:                                       3/4
||-----------------------|------------------------|---------------|
||o----------------------|------------------------|---------------|
||-----------------------|------------------------|---------------|
||-----------------------|------7777-----5555-----|-3333----------|
||o-5s3--2-5s3--2-2-2-2--|-2-2-------8-8------7-7-|------5-5-5-5--|
||--3s1-00-3s1-00-0-0000-|-0000-------------------|---------------|

|----------------------|------------------------|----------------||
|----------------------|------------------------|---------------o||
|----------------------|------------------------|----------------||
|----------------------|------------------------|----------------||
|-5s3--2-5s3--2-2-2-2--|-2-2--7777-----5555-----|-3333----------o||
|-3s1-00-3s1-00-0-0000-|-0000------8-8------7-7-|------5-5-5-5---|| x2

Chorus (2):

Chorus x2


||--------------------|---------------|-------------------|-------------------||
||o-------------------|---------------|-------------------|------------------o||
||--------------------|---------------|-------------------|-------------------||
||--------------------|---------------|-------------------|-------------------||
||o-------------------|---7----6----5~|-------------------|------------------o||
||-00-8-8-00-7-00-5-5-|-5---00---00---|-00-8-8-00-7-00-55-|-5-/5-00-3-3-3-3-3-||

Bridge: (Though One)
|----------|--------|
|----------|--------|
|----------|--------|
|----------|--------|
|-2--------|-(2)----|
|-0--------|-(0)----|

Interlude:
||----------------------|--------------|---------------------|----------------||
||o---------------------|--------------|---------------------|---------------o||
||----------------------|--------------|---------------------|----------------||
||--/7-6----------------|--------------|-/7-6----------------|----------------||
||o------8-7~---5-(5)b7r|=(5)~---------|------8-7~---5-(5)b7r|=(5)~----------o||
||----------------------|--------------|---------------------|----------------||
|                                                                            x3
||----------------------|--------------|---------------------|----------------||
||o---------------------|--------------|---------------------|---------------o||
||----------------------|--------------|---------------------|----------------||
||----------------------|--------------|---------------------|----------------||
||o---------------------|--2-----------|---------------------|--2------------o||
||---0-0-0-1-0--0--1----|--0------0-0--|--0-0-0-1-0--0--1----|--0------0-0----||

|---------------------|--------------|---------------------|--------|
|---------------------|--------------|---------------------|--------|
|---------------------|--------------|---------------------|--------|
|-/7-6----------------|--------------|-/7-6----------------|--------|
|------8-7~---5-(5)b7r|=(5)~---------|------8-7~---5-(5)b7r|=(5)~---|
|---------------------|--------------|---------------------|--------|
|
|---------------------|--------------|---------------------|--------|
|---------------------|--------------|---------------------|--------|
|---------------------|--------------|---------------------|--------|
|---------------------|--------------|---------------------|--------|
|---------------------|--2-----------|---------------------|--2-----|
|--0-0-0-1-0--0--1----|--0------0-0--|--0-0-0-1-0--0--1----|--0-----|

Verse: 6/4 (These Are 1/16 In Triplets)
||--------------------------------|-------------------------------|
||o-------------------------------|-------------------------------|
||--------------------------------|-------------------------------|
||--------------------------------|-------------------------------|
||o-------------------------------|-------------------------------|
||--0000--000000--000000--000000--|-0000--000000--000000--000000--|

                                 (These Are Normal 1/16 Notes)
|-------------------------------|-------------------------------|
|-------------------------------|-------------------------------|
|-------------------------------|-------------------------------|
|-------------------------------|-------------------------------|
|-------------------------------|-------------------------------|
|-0000--000000--000000--000000--|-0000--000000--000000--000000--|

Interlude:
|--------------------|---------------|---------------------|---------------|
|--------------------|---------------|---------------------|---------------|
|--------------------|---------------|---------------------|---------------|
|-/7-6---------------|---------------|-/7-6----------------|---------------|
|------8-7~--5-(5)b7r|=(5)~----------|------8-7~---5-(5)b7r|=(5)~----------|
|--------------------|---------------|---------------------|---------------|
|
|--------------------|---------------|---------------------|---------------|
|--------------------|---------------|---------------------|---------------|
|--------------------|---------------|---------------------|---------------|
|--------------------|---------------|---------------------|---------------|
|--------------------|--2------------|---------------------|--2------------|
|--------------------|--0------/7\---|--0-0-0-1-0--0--1----|--0------0-0---|

|---------------------|--------------|---------------------|-------------|
|---------------------|--------------|---------------------|-------------|
|---------------------|--------------|---------------------|-------------|
|-/7-6----------------|--------------|-/7-6----------------|-------------|
|------8-7~---5-(5)b7r|=(5)~---------|------8-7~---5-(5)b7r|=(5)~--------|
|---------------------|--------------|---------------------|-------------|
|
|---------------------|--------------|---------------------|-------------|
|---------------------|--------------|---------------------|-------------|
|---------------------|--------------|---------------------|-------------|
|---------------------|--------------|---------------------|-------------|
|---------------------|--2-----------|---------------------|--2--------2-|
|--0-0-0-1-0--0--1----|--0------0-0--|--0-0-0-1-0--0--1----|--0--------0-|

Verse:
|-----------------|-------------------|-----------------|-------------------|
|-----------------|-------------------|-----------------|-------------------|
|-----------------|-------------------|-----------------|-------------------|
|-7-----6---------|-------------------|-----------------|-------------------|
|---0-0---0-0-/8~-|-(8)-5-5-5-5-5-5-5-|-8-0-0-7-0-0-/8~-|-(8)-5-5-5-5-5-5-5-|
|-----------------|-------------------|-----------------|-------------------|

|-----------------|-------------------|-----------------|---------------------|
|-----------------|-------------------|-----------------|---------------------|
|-----------------|-------------------|-----------------|---------------------|
|-7-----6---------|-------------------|-----------------|---------------------|
|---0-0---0-0-/8~-|-(8)-5-5-5-5-5-5-5-|-8-0-0-7-0-0-/8~-|(8)8-8-8-8-8----8-8--|
|-----------------|-------------------|-----------------|---------------------|
|
|-----------------|-------------------|-----------------|---------------------|
|-----------------|-------------------|-----------------|---------------------|
|-----------------|-------------------|-----------------|---------------------|
|-7-----6---------|-------------------|-----------------|---------------------|
|---0-0---0-0-/8~-|-(8)-5-5-5-5-5-5-5-|-8-0-0-7-0-0-/8~-|(8)8-8-8-8-8b10=8=8r-|
|-----------------|-------------------|-----------------|---------------------|

|-----------------|-------------------|-----------------|-------------------|
|-----------------|-------------------|-----------------|-------------------|
|-----------------|-------------------|-----------------|-------------------|
|-7-----6---------|-------------------|-----------------|-------------------|
|---0-0---0-0-/8~-|-(8)-5-5-5-5-5-5-5-|-8-0-0-7-0-0-/8~-|-(8)-5-5-5-5-5-5-5-|
|-----------------|-------------------|-----------------|-------------------|
|
|-----------------|-------------------|-----------------|-------------------|
|-----------------|-------------------|-----------------|-------------------|
|-----------------|-------------------|-----------------|-------------------|
|-7-----6---------|-----7-7-7-7-7-7-7-|-3-----2---------|-----7-7-7-7-7-7-7-|
|-7-0-0-6-0-0-/8~-|-(8)-5-5-5-5-5-5-5-|-3-0-0-2-0-0-/8~-|-(8)-5-5-5-5-5-5-5-|
|-5-----4---------|-------------------|-1-----0---------|-------------------|

|----------------|-------------------|----------------|----------------------|
|----------------|-------------------|----------------|----------------------|
|----------------|-------------------|----------------|----------------------|
|-7-----6--------|-------------------|----------------|----------------------|
|---0-0---0-0-/8~|-(8)-5-5-5-5-5-5-5-|-8-0-0-7-0-0-/8~|(8)-8-8-8-8-8b10=8=8r-|
|----------------|-------------------|----------------|----------------------|
|
|----------------|-------------------|----------------|------------------------|
|----------------|-------------------|----------------|------------------------|
|----------------|-------------------|----------------|---------------10-10-10-|
|-7-----6--------|-----7-7-7-7-7-7-7-|-3-----2--------|---10-10-10-10-10-10-10-|
|-7-0-0-6-0-0-/8~|-(8)-5-5-5-5-5-5-5-|-3-0-0-2-0-0-/8~|(8)-8--8--8--8-8--8--8-|
|-5-----4--------|-------------------|-1-----0--------|------------------------|

|-------------------|--------------------|-----------------|------------------|
|-------------------|--------------------|-----------------|------------------|
|-------------------|--------------------|-----------------|------------------|
|-7-----6-----------|--------------------|-----------------|------------------|
|---0-0---0-0-/8~---|-(8)-5-5-5-5-5-5-5--|-8-0-0-7-0-0-/8~-|(8)5-5-5-5-5-5-5--|
|-------------------|--------------------|-----------------|------------------|
|
|-------------------|--------------------|-----------------|------------------|
|-------------------|--------------------|-----------------|------------------|
|-------------------|--------------------|-----------------|------------------|
|-------------------|--------------------|-----------------|------------------|
|-------------------|--------------------|-----------------|------------------|
|-000---00000--0000-|--0--00000-000---00-|-000-00000-00000-|-000---00000-0000-|

|-----------------|-------------------|-----------------|---------------------|
|-----------------|-------------------|-----------------|---------------------|
|-----------------|-------------------|-----------------|---------------------|
|-7-----6---------|-------------------|-----------------|---------------------|
|---0-0---0-0-/8~-|-(8)-5-5-5-5-5-5-5-|-8-0-0-7-0-0-/8--|(8)8-8-8-8-8b10=8=8r-|
|-----------------|-------------------|-----------------|---------------------|
|
|-----------------|-------------------|-----------------|---------------------|
|-----------------|-------------------|-----------------|---------------------|
|-----------------|-------------------|-----------------|---------------------|
|-----------------|-------------------|-----------------|---------------------|
|-----------------|-------------------|-----------------|---------------------|
|-0-00000-000--00-|--000--00000-00000-|-000--00000-0000-|-0-00000-000------00-|

Bridge:
|------------------|----------|
|------------------|----------|
|------------------|----------|
|------------------|----------|
|-----------2------|-3------3-|
|-000--0000-0-1111-|-1-1111-1-|

Verse (1)

Chorus (2)

Outro:
|----------|------------|------------|--------*|
|----------|------------|------------|--------*|
|----------|------------|------------|--------*|
|----------|------------|------------|--------*|
|-2--------|-(2)--------|-(2)--------|-(2)----*|
|-0--------|-(0)--------|-(0)--------|-(0)----*|

http://www.cyphercore.com

  Visit MetalTabs.com for more metal tablature

bottom separator

Contact Us | Privacy Policy | Disclaimer | Legal Notice
Copyright © 2001-2014 MetalTabs.com. All Rights Reserved.