top separator

Home

Forum

What's New

Submit a Tab

FAQ

Links

Contact Us

Link to Us

MuSpy.com

MetalTabs.com logo

Bands

0-9

A

B

C

D

E

F

G

H

I

J

K

L

M

N

O

P

Q

R

S

T

U

V

W

X

Y

Z

Search

What

Where
 

Evildead - "Annihilation Of Civilization" Guitar Tab

Plain Text Version
More Evildead Tabs

Hits: 5651
Rated: 5.00 out of 5 (2 votes)
Updated: 2006-06-26 07:26:18

 

By:

Lokis_Vault

sendpm.gif

email.gif

Important note
This tab is available online because we obtained explicit permission from Evildead or their label.


#----------------------------------PLEASE NOTE---------------------------------#
#This file is the author's own work and represents their interpretation of the #
#song. You may only use this file for private study, scholarship, or research. #
#Unless specified otherwise, this is NOT an official tab from the band members.#
#------------------------------------------------------------------------------#

  Visit MetalTabs.com for more metal tablature
  
Artist: Evildead
Album:  Annihilation Of Civilization
Song:   Annihilation Of Civilization

Copyright (c) Roadrunner 1989
Version 1.0 - 14. May 2006

Transcribed by: Daniel F. (lokis_vault@gmx.net)

For exact timing and order listen to the song.
For corrections, suggestions ...etc contact my e-mail-address

.  - palm mute
b  - bend
p  - pull off
h  - hammer on
/  - slide up to
\  - slide down
ph - pinched harmonic

Tuning: half step down to Eb

1) 4x (4th time with 1b instead of higher notes) 1b)
|-----------------------------------------------||------------------|
|------------------------------9h10p9~----------||------------------|
|----------------------9h10h12---------9-10-9~--||------------------|
|------------10-9-------------------------------||------------------|
|------10-12-8--7-------------------------------||-7-5-3-2----------|
|--0-0-8--10------------------------------------||-5-3-1-0----------|
   . .

2) 1x
|-------------------------------------------------------------------|
|-------------------------------------------------------------------|
|-------------------------------------------------------------------|
|-------0---3---0---------5-5-5-------------------------------------|
|---2---------------2-----3-3-3-------------------------------------|
|-1---1---1---1---1---1-0-------------------------------------------|
  .   .   .   .   .   . .

3) 5x
|-------------------------------------------------------------------|
|-------------------------------------------------------------------|
|-------------------------------------------------------------------|
|------------------------0---0---------------0---3---0---------5-5-5|
|--------2---2---------------------------2---------------2-----3-3-3|
|0-000-1---1---1-0-000-1---1---1-0-000-1---1---1---1---1---1-0------|
 . ... .   .   . . ... .   .   . . ... .   .   .   .   .   . .

4) 1x
|-------------------------------------------------------------------|
|-------------------------------------------------------------------|
|-------------------------------------------------------------------|
|-----------------------------4-------------------------------------|
|-2-2-2-2-2-2-2-2-2-2-2-2-4---2-2-2-2-2-2-2-2-2-2-2-2-2-5-5-3-------|
|-0-0-0-0-0-0-0-0-0-0-0-0-2-0---0-0-0-0-0-0-0-0-0-0-0-0-3-3-1-------|
  . . . . . . . . . . . . . .   . . . . . . . . . . . . . .

|-------------------------------------------------------------------|
|-------------------------------------------------------------------|
|-------------------------------------------------------------------|
|-----------------------------4-------------------------------------|
|-2-2-2-2-2-2-2-2-2-2-2-2-4---2-2-2-2-2-2-2-2-2-2-2-2-2-5---3-------|
|-0-0-0-0-0-0-0-0-0-0-0-0-2-0---0-0-0-0-0-0-0-0-0-0-0-0-3-0-1-------|
  . . . . . . . . . . . . . .   . . . . . . . . . . . . . .

5) 1x
|-------------------------------------------------------------------|
|-------------------------------------------------------------------|
|-------------------------------------------------------------------|
|-----------------------------4-------------------------------------|
|-------------------------4---2-------------------------5-5-3-------|
|-000-000-000-000-000-000-2-0---000-000-000-000-000-000-3-3-1-------|
  ... ... ... ... ... ... . .   ... ... ... ... ... ... . .

|-------------------------------------------------------------------|
|-------------------------------------------------------------------|
|-------------------------------------------------------------------|
|-----------------------------4-------------------------------------|
|-------------------------4---2-------------------------5---3-------|
|-000-000-000-000-000-000-2-0---000-000-000-000-000-000-3-0-1-------|
  ... ... ... ... ... ... . .   ... ... ... ... ... ... . .

6) 2x
|-------------------------------------------------------------------|
|-------------------------------------------------------------------|
|-------------------------------------------------------------------|
|-7/9----------12-10-10-9-------------------------------------------|
|-5/7---10\9---10-8--8--7-------------------------------------------|
|-----0--8\7-0------------------------------------------------------|
      .      .
|-------------------------------------------------------------------|
|-------------------------------------------------------------------|
|-------------------------------------------------------------------|
|-------------7/9----------12-10-10-9---------10--------------------|
|-------------5/7---10\9---10-8--8--7---------8---------------------|
|-0-000-00000-----0--8\7-0------------8-7-5-0-----------------------|
  . ... .....     .      .

Riff 5) 1x
Riff 6) 2x
Riff 4) 1x

7) 3x             7b) 1x
|----------------||-------------------------------------------------|
|----------------||-------------------------------------------------|
|----------------||-------------------------------------------------|
|--------------4-||-------------3-4---------------------------------|
|--------------2-||-------------1-2---------------------------------|
|--1-3-2-0-000---||---1-3-2-0-0-------------------------------------|
   . . . . ...        . . . . .

Riff 7)  3x
Riff 7b) 1x
Riff 7)  3x
Riff 7b) 1x
Riff 7)  3x
Riff 7)  1x (without last note)

8) Git1
|-------------------------------------------------------------------|
|-------------------------------------------------------------------|
|---------7-6-6-5-5-4---------------------------7-6-6-5-5-4---------|
|---------5-4-4-3-3-2--------9-8-8-7-7-5--------5-4-4-3-3-2---------|
|-2-2-2-2--------------2-2-2-7-6-6-5-5-3--2-2-2---------------------|
|-0-0-0-0--------------0-0-0--------------0-0-0---------------------|
  . . . .              . . .              . . .

|-------------------------------------------------------------------|
|-------------------------------------------------------------------|
|-------7-6-6-5-5-4-------------------------------------------------|
|-------5-4-4-3-3-2-------------------------------------------------|
|-2-2-2-------------------------------------------------------------|
|-0-0-0-------------------------------------------------------------|
  . . .


   Git2
|-------------------------------------------------------------------|
|--15-14-14-13-13-12---12-11-11-10-10-8---15-14-14-13-13-12---------|
|-------------------------------------------------------------------|
|-------------------------------------------------------------------|
|-------------------------------------------------------------------|
|-------------------------------------------------------------------|

|-------------------------------------------------------------------|
|--15-14-14-13-13-12------------------------------------------------|
|-------------------------------------------------------------------|
|-------------------------------------------------------------------|
|-------------------------------------------------------------------|
|-------------------------------------------------------------------|


Riff 7)  3x
Riff 7b) 1x
Riff 7)  4x
Riff 8) 1x
Riff 3) 4x

9a) 2x
|-------------------------------------------------------------------|
|-------------------------------------------------------------------|
|-------------------------------------------------------------------|
|-------5---4---3-------4-3-4-5-4-------5---4---3-------------------|
|-------3---2---1-------2-1-2-3-2-------3---2---1-------5-3-4-3-----|
|-0-0-0---0---0---0-0-0-----------0-0-0---0---0---0-0-0-3-1-2-1-0---|
  . . .   .   .   . . . . . . . . . . .   .   .   . . . . . . . .

9b) 2x
|-------------------------------------------------------------------|
|-------------------------------------------------------------------|
|-------------------------------------------------------------------|
|-------5---4---3-------4-3-4-5-4-------5---4---3-------------------|
|-------3---2---1-------2-1-2-3-2-------3---2---1-------5-3-4-3-----|
|-0-0-0---0---0---0-0-0-----------0-0-0---0---0---0-0-0-3-1-2-1-0---|
  . . .   .   .   . . .           . . .   .   .   . . .         .


10) Solo like this (Riff 9)
|-------------------------------------------------------------------|
|-------------------------------------------------------------------|
|----------11-10-8--------10-9-7---------11-10-8---------12-11-9----|
|--8-10-11---------7-9-10--------8-10-11---------9-11-12------------|
|-------------------------------------------------------------------|
|-------------------------------------------------------------------|

|-------------------------------------------------------------------|
|-------------------------------------------------------------------|
|----------11-10-8--------10-9-7---------11-10-8---------12-11-9----|
|--8-10-11---------7-9-10--------8-10-11---------9-11-12------------|
|-------------------------------------------------------------------|
|-------------------------------------------------------------------|

|-----------17-16-14----------16-15-13----------15-14-12------------|
|--12-14-15----------11-13-14----------10-12-13---------------------|
|--------------------------------------------------------12-14-15---|
|-------------------------------------------------------------------|
|-------------------------------------------------------------------|
|-------------------------------------------------------------------|

|-------------------------------------------------------------------|
|--15-14-12----------16-15-13----------15-14-12---------14-13-11----|
|-----------11-13-14----------10-12-13----------9-11-12-------------|
|-------------------------------------------------------------------|
|-------------------------------------------------------------------|
|-------------------------------------------------------------------|

|-------------------------------------------------------------------|
|----------10-9-7---------------------------------------------------|
|--8-10-11----------------------------------------------------------|
|-------------------------------------------------------------------|
|-------------------------------------------------------------------|
|-------------------------------------------------------------------|

Riff 3) 4x
Riff 4) 1x
Riff 5) 1x
Riff 6) 2x
Riff 5) 1x

END

  Visit MetalTabs.com for more metal tablature

bottom separator

Contact Us | Privacy Policy | Disclaimer | Legal Notice
Copyright © 2001-2014 MetalTabs.com. All Rights Reserved.