top separator

Home

Forum

What's New

Submit a Tab

FAQ

Links

Contact Us

Link to Us

MuSpy.com

MetalTabs.com logo

Bands

0-9

A

B

C

D

E

F

G

H

I

J

K

L

M

N

O

P

Q

R

S

T

U

V

W

X

Y

Z

Search

What

Where
 

Zyklon - "Cold Grave" Guitar Tab

Plain Text Version
More Zyklon Tabs

Hits: 3714
Rated: 4.00 out of 5 (2 votes)
Updated: 2006-06-26 07:25:50

 

By:

Robbie Filth

sendpm.gif

email.gif

Important note
This tab is available online because we obtained explicit permission from Zyklon or their label.


#----------------------------------PLEASE NOTE---------------------------------#
#This file is the author's own work and represents their interpretation of the #
#song. You may only use this file for private study, scholarship, or research. #
#Unless specified otherwise, this is NOT an official tab from the band members.#
#------------------------------------------------------------------------------#

  Visit MetalTabs.com for more metal tablature
  
Band: Zyklon
Album: Disintegrate
Song: A Cold Grave
Record Label: Candlelight
Tuning: D G C F A D

------------------------------------
------------------------------------
-6--6--6/7------6\\\\\------9\\\\\--
-5--5--5/6------5\\\\\------8\\\\\--
-4--4--4/5-2222-4\\\\\-2222-7\\\\\--
-----------0000--------0000---------
           pm..        ....

-------------------------------------
-------------------------------------
-6--6--6/7-------------------9\\\\\--
-5--5--5/6-------------------8\\\\\--
-4--4--4/5-2222----2----2222-7\\\\\--
-----------0000----0----0000---------
           pm..         ....

------------------------------------
------------------------------------
-6--6--6/7------6\\\\\------9\\\\\--
-5--5--5/6------5\\\\\------8\\\\\--
-4--4--4/5-2222-4\\\\\-2222-7\\\\\--
-----------0000--------0000---------
           pm..        ....

-----------------------------------
-----------------------------------
-6--6--6/7-------------------------
-5--5--5/6-------------------------
-4--4--4/5-2222----2---------------
-----------0000----0----5432-4321--
           pm..         .... ....

guitar 1
-----------------------------------------
-----------------------------------------
-----------------------------------------
-----------------------------------------
-2----2----2----2----2----2----2----2----
-0----0----0----0----0----0----0----0----

guitar 2
---------------------------------------6--------------------------
------------------------------------------------------------------
-------3---------------3-------------------------------3----------
-----2---2-----------2---2-----------2---2-----------2---2--------
---1-------1---1---1-------1---1---1-------1---1---1-------1---1--
-0-----------0---0-----------0---0-----------0---0-----------0----X2

------------------------------------
------------------------------------
------------------------------------
-6--6--6/7------6\\\\\------9\\\\\--
-5--5--5/6-2222-5\\\\\-2222-8\\\\\--
-4--4--4/5-0000-4\\\\\-0000-7\\\\\--
           pm..        ....

-------------------------------------
-------------------------------------
-------------------------------------
-6--6--6/7-------------------9\\\\\--
-5--5--5/6-2222----2----2222-8\\\\\--
-4--4--4/5-0000----0----0000-7\\\\\--
           pm..         ....

------------------------------------
------------------------------------
------------------------------------
-6--6--6/7------6\\\\\------9\\\\\--
-5--5--5/6-2222-5\\\\\-2222-8\\\\\--
-4--4--4/5-0000-4\\\\\-0000-7\\\\\--
           pm..        ....

-----------------------------------
-----------------------------------
-----------------------------------
-6--6--6/7-------------------------
-5--5--5/6-2222----2---------------
-4--4--4/5-0000----0----5432-4321--
           pm..         .... ....

------------------------------------
------------------------------------
------------------------------------
-6--6--6/7------6\\\\\------9\\\\\--
-5--5--5/6-2222-5\\\\\-2222-8\\\\\--
-4--4--4/5-0000-4\\\\\-0000-7\\\\\--
           pm..        ....

-------------------------------------
-------------------------------------
-------------------------------------
-6--6--6/7-------------------9\\\\\--
-5--5--5/6-2222----2----2222-8\\\\\--
-4--4--4/5-0000----0----0000-7\\\\\--
           pm..         ....

------------------------------------
------------------------------------
------------------------------------
-6--6--6/7------6\\\\\------9\\\\\--
-5--5--5/6-2222-5\\\\\-2222-8\\\\\--
-4--4--4/5-0000-4\\\\\-0000-7\\\\\--
           pm..        ....

-----------------------------------
-----------------------------------
-----------------------------------
-6--6--6/7-------------------------
-5--5--5/6-2222----2---------------
-4--4--4/5-0000----0----5432-4321--
           pm..         .... ....

-------------------------------------------------------------------------
-------------------------------------------------------------------------
-------------------------------------------------------------------------
-------------------------------------------------------------------------
-5\4-4-4-4-4-4-5\4-4-5\4-5-6\5-4/5--5\4-4-4-4-4-4-4-5\4-4-5\4-4-4\3-3/5--
-3\2-2-2-2-2-2-3\2-2-3\2-3-4\3-2/3--3\2-2-2-2-2-2-2-3\2-2-3\2-2-2\1-1/3--X4
     pm. . . .     .     .              . . . . . .     .     .

guitar 1
-----------------------------------------
-----------------------------------------
-----------------------------------------
-----------------------------------------
-2----2----2----2----2----2----2----2----
-0----0----0----0----0----0----0----0----

guitar 2
---------------------------------------6--------------------------
------------------------------------------------------------------
-------3---------------3-------------------------------3----------
-----2---2-----------2---2-----------2---2-----------2---2--------
---1-------1---1---1-------1---1---1-------1---1---1-------1---1--
-0-----------0---0-----------0---0-----------0---0-----------0----X2


------------------------------------
------------------------------------
------------------------------------
-6--6--6/7------6\\\\\------9\\\\\--
-5--5--5/6-2222-5\\\\\-2222-8\\\\\--
-4--4--4/5-0000-4\\\\\-0000-7\\\\\--
           pm..        ....

-------------------------------------
-------------------------------------
-------------------------------------
-6--6--6/7-------------------9\\\\\--
-5--5--5/6-2222----2----2222-8\\\\\--
-4--4--4/5-0000----0----0000-7\\\\\--
           pm..         ....

------------------------------------
------------------------------------
------------------------------------
-6--6--6/7------6\\\\\------9\\\\\--
-5--5--5/6-2222-5\\\\\-2222-8\\\\\--
-4--4--4/5-0000-4\\\\\-0000-7\\\\\--
           pm..        ....

-----------------------------------
-----------------------------------
-----------------------------------
-6--6--6/7-------------------------
-5--5--5/6-2222----2---------------
-4--4--4/5-0000----0----5432-4321--
           pm..         .... ....

------------------------------------
------------------------------------
------------------------------------
-6--6--6/7------6\\\\\------9\\\\\--
-5--5--5/6-2222-5\\\\\-2222-8\\\\\--
-4--4--4/5-0000-4\\\\\-0000-7\\\\\--
           pm..        ....

-------------------------------------
-------------------------------------
-------------------------------------
-6--6--6/7-------------------9\\\\\--
-5--5--5/6-2222----2----2222-8\\\\\--
-4--4--4/5-0000----0----0000-7\\\\\--
           pm..         ....

------------------------------------
------------------------------------
------------------------------------
-6--6--6/7------6\\\\\------9\\\\\--
-5--5--5/6-2222-5\\\\\-2222-8\\\\\--
-4--4--4/5-0000-4\\\\\-0000-7\\\\\--
           pm..        ....

-----------------------------------
-----------------------------------
-----------------------------------
-6--6--6/7-------------------------
-5--5--5/6-2222----2---------------
-4--4--4/5-0000----0----5432-4321--
           pm..         .... ....

-------------------------------------------------------------------------
-------------------------------------------------------------------------
-------------------------------------------------------------------------
-------------------------------------------------------------------------
-5\4-4-4-4-4-4-5\4-4-5\4-5-6\5-4/5--5\4-4-4-4-4-4-4-5\4-4-5\4-4-4\3-3/5--
-3\2-2-2-2-2-2-3\2-2-3\2-3-4\3-2/3--3\2-2-2-2-2-2-2-3\2-2-3\2-2-2\1-1/3--X4
     pm. . . .     .     .              . . . . . .     .     .

guitar 1
--------------------
--------------------
--------------------
--------------------
-4-------4-2--------
-2-------2-0--------X2

guitar 2 Listen to this part to know when to hit all the notes.
---------------------------------------------------------------------
---------------------------------------------------------------------
----------4--3-3-4-3---------------4-3----6-----6----6-7-6-4---------
-4--5----------------5-----4-5-4-------5-----4-----4----------5-4-2--
-------7-----------------7-------7-----------------------------------
---------------------------------------------------------------------

guitar1
------------------------------------
------------------------------------
------------------------------------
------------------------------------
------------------------------------
-2222222222222223-0000000000000033--X2
 trem.............................
 pm...............................

guitar1
-----------------------------------------------------------------
-----------------------------------------------------------------
-----------------------------------------------------------------
-4--------5--------4---------------------------------------------
----------------------------2---------------------222222-111111--
---222222---222222---222222---222222-000000000000----------------
   pm....   ......   ......   ...... ............ ...... ......

----------------------------------------------------------------------
----------------------------------------------------------------------
----------------------------------------------------------------------
-4--------5--------4--------5-----------------------------------------
-----------------------------------------------------111-222----------
---222222---222222---222222---222222-0-000-000000000---------000-333--
   pm....   ......   ......   ...... . ... ......... trem...........

guitar2 start of solo
-------------------------------------------------------------
-7-8-7----8-8-8-10-8-7-8-8-8--7h8p7--------------------------
------------------------------------6-7-9-7---6--7-----------
----------------------------------------------------4-5-4----
-------------------------------------------------------------
-------------------------------------------------------------

guitar1:     guitar 2 continues the solo over this.
-----------------------------------------------------------------
-----------------------------------------------------------------
-----------------------------------------------------------------
-4--------5--------4---------------------------------------------
----------------------------2---------------------222222-111111--
---222222---222222---222222---222222-000000000000----------------
trem...........................................................
pm.............................................................

----------------------------------------------------------------------
----------------------------------------------------------------------
----------------------------------------------------------------------
-4--------5--------4--------5-----------------------------------------
-----------------------------------------------------111-222----------
---222222---222222---222222---222222-0-000-000000000---------333-000--
trem................................................................
pm..................................................................

guitar 1
--------------------
--------------------
--------------------
--------------------
-4-------4-2--------
-2-------2-0--------X3

----------------------
----------------------
----------------------
----------------------
-4-------4-2-----4----
-2-------2-0-----2---- Let ring until faded out.

guitar 2 Listen to this part to know when to hit all the notes.
---------------------------------------------------------------------
---------------------------------------------------------------------
----------4--3-3-4-3---------------4-3----6-----6----6-7-6-4---------
-4--5----------------5-----4-5-4-------5-----4-----4----------5-4-2--
-------7-----------------7-------7-----------------------------------
---------------------------------------------------------------------

---------------------------------------------------------------------------
---------------------------------------------------------------------------
----------4--3-3-4-3---------------4-3----6-----6----6-7-6-4------------Lr-
-4--5----------------5-----4-5-4-------5-----4-----4----------5-4-2---9-8--
-------7-----------------7-------7-----------------------------------------
---------------------------------------------------------------------------
Lr = Let ring.

THE END

any corrections mail them to: septic_flesh241@hotmail.com
Also if someone can work out the rest of the solo send me that to.

  Visit MetalTabs.com for more metal tablature

bottom separator

Contact Us | Privacy Policy | Disclaimer | Legal Notice
Copyright © 2001-2014 MetalTabs.com. All Rights Reserved.