top separator

Home

Forum

What's New

Submit a Tab

FAQ

Links

Contact Us

Link to Us

MuSpy.com

MetalTabs.com logo

Bands

0-9

A

B

C

D

E

F

G

H

I

J

K

L

M

N

O

P

Q

R

S

T

U

V

W

X

Y

Z

Search

What

Where
 

Evildead - "F.C.I. / The Awakening" Guitar Tab

Plain Text Version
More Evildead Tabs

Hits: 3245
Rated: 5.00 out of 5 (1 vote)
Updated: 2006-06-26 07:22:43

 

By:

Lokis_Vault

sendpm.gif

email.gif

Important note
This tab is available online because we obtained explicit permission from Evildead or their label.


#----------------------------------PLEASE NOTE---------------------------------#
#This file is the author's own work and represents their interpretation of the #
#song. You may only use this file for private study, scholarship, or research. #
#Unless specified otherwise, this is NOT an official tab from the band members.#
#------------------------------------------------------------------------------#

  Visit MetalTabs.com for more metal tablature
  
Artist: Evil Dead
Album:  Annihilation of civilization
Song:   F.C.I./The Awakening

Copyright (c) Steamhammer 1989
Version 1.0 - 13. May 2006

Transcribed by: Daniel F. (lokis_vault@gmx.net)

For exact timing and order listen to the song.
For corrections, suggestions ...etc contact my e-mail-address

.  - palm mute
b  - bend
p  - pull off
h  - hammer on
/  - slide up to
\  - slide down
ph - pinched harmonic
"  - tremolopicking

Tuning: half step down to Eb

1a) 20x            1b)  4x                1c)   4x
|-----------------||---------------------||-------------------------|
|-----------------||---------------------||-------------------------|
|-----------------||---------------------||-------------------------|
|-----------------||---------------------||-------------------------|
|-2-2-2-2-2-2-3/--||-----5-5-5-5-5-5-6---||---7-7-7-7-7-7-8---------|
|-0-0-0-0-0-0-1/--||-----3-3-3-3-3-3-4---||---5-5-5-5-5-5-6---------|
    . . .   .              . . .   .          . . .   .


2) this is played over Riff 1
|-------------------------------------------------------------------|
|-12~---13p12h13-9~-----------------13~---13-12------------12~------|
|-b-----------------10-7~\-4-5-4~---------------13~--12-13----------|
|-------------------------------------------------------------------|
|-------------------------------------------------------------------|
|-------------------------------------------------------------------|

|-------------------------------------------------10-13-12----------|
|--10h12p10-------------------13-12----------12------------13-10----|
|-----------9h10~--9-/9~-9-12----ph---9-12p9-ph---------------------|
|-------------------------------------------------------------------|
|-------------------------------------------------------------------|
|-------------------------------------------------------------------|

|---------------------------10-13-12-10-----------------------------|
|-----------14~---------14~-------------10-14~----------------------|
|-9~-9-14p9------9-12p9---------------------------------------------|
|-------------------------------------------------------------------|
|-------------------------------------------------------------------|
|-------------------------------------------------------------------|


3)      4x                       4) 4x
|-------------------------||----||----------------------------------|
|-------------------------||----||----------------------------------|
|-------------------------||----||----------------------------------|
|-------------------------||----||-----8-------8----8---------------|
|------------8-7--------8-||-7--||-----6---8---6----6---7---8-------|
|--5"-8-7-5"-----5"-8-7-6-||-5--||--5"---5-6-5---5"---5-5-5-6-------|


5) 2x
|-------------------------------------------------------------------|
|-------------------------------------------------------------------|
|-------------------------------------------------------------------|
|-----2"-1-2"-------------------------------------------------------|
|-------------------------------------------------------------------|
|-1"----------------------------------------------------------------|

6) 4x
|-------------------------------------------------------------------|
|-------------------------------------------------------------------|
|-------------------------------------------------------------------|
|-------------------------------------------------------------------|
|------------8-7----10-8--------------------------------------------|
|--5"-8-7-5"-----5"-8--6--------------------------------------------|


Riff 4) 4x
Riff 5) 4X


7a) 2x
|-------------------------------------------------------------------|
|-------------------------------------------------------------------|
|-------------------------------------------------------------------|
|-------------------------------------------------------------------|
|-----9\8-----8\7-----5\4-4\3-3\2-----9\8-8\6-----------------------|
|-0-0-7\6-0-0-6\5-0-0-3\2-2\1-1\0-0-0-7\6-6\5-0-0-0-0-0-0-0-0-------|
  . .     . .     . .             . .         . . . . . . . .


7b) 6x
|-------------------------------------------------------------------|
|-------------------------------------------------------------------|
|-------------------------------------------------------------------|
|-------------------------------------------------2"----------------|
|-----2-1-----1-0---------------------2-1-----1-0-------------------|
|-0-0-----0-0-----0-0-3-2-2-1-1-0-0-0-----0-0-----------------------|
  . . . . . . . . . . . . . . . . . . . . . . . .


8) over Riff 7b
|-------------------------------------------------------------------|
|-------------------------------------------------------------------|
|--------------------3\---------------------------------------------|
|-2~-2-2-1~--2~--4-5------------------------------------------------|
|-------------------------------------------------------------------|
|-------------------------------------------------------------------|


9a) 4x                9b) 4x
|--------------------||---------------------------------------------|
|--------------------||---------------------------------------------|
|--------------------||---------------------------------------------|
|-----------------5--||-----------------7---------------------------|
|----5-4-2-3------3--||----7-6-4-5------5---------------------------|
|-2"---------2"-2----||--4"---------4"-4----------------------------|
                .                   .

Riff 9a) 4x
Riff 9b) 4x

|-------------------------------------------------------------------|
|-------------------------------------------------------------------|
|-------------------------------------------------------------------|
|--7-7--------------------------------------------------------------|
|--5-5--------------------------------------------------------------|
|-------------------------------------------------------------------|

END

  Visit MetalTabs.com for more metal tablature

bottom separator

Contact Us | Privacy Policy | Disclaimer | Legal Notice
Copyright © 2001-2014 MetalTabs.com. All Rights Reserved.