top separator

Home

Forum

What's New

Submit a Tab

FAQ

Links

Contact Us

Link to Us

MetalTabs.com logo

Bands

0-9

A

B

C

D

E

F

G

H

I

J

K

L

M

N

O

P

Q

R

S

T

U

V

W

X

Y

Z

Search

What

Where
 

Debauchery (DE) - "Kill Maim Burn" Guitar Tab

Plain Text Version
More Debauchery (DE) Tabs

Hits: 3072
Rated: 4.38 out of 5 (8 votes)
Updated: 2006-08-17 03:20:02

 

By:

grindi

sendpm.gif

email.gif

Important note
This tab is available online because we obtained explicit permission from Debauchery (DE) or their label.


#----------------------------------PLEASE NOTE---------------------------------#
#This file is the author's own work and represents their interpretation of the #
#song. You may only use this file for private study, scholarship, or research. #
#Unless specified otherwise, this is NOT an official tab from the band members.#
#------------------------------------------------------------------------------#

  Visit MetalTabs.com for more metal tablature
  
Band:  (Debauchery)
Album: (Kill Maim Burn)
Song:  (Kill Maim Burn)

Copyright (c)  (MDD) (2003)
Version 1.0 - (16.05.2006)

Transcribed By: (grindi)
Email:          (Danko-Jones@gmx.net)


.  - palm mute           /  - slide up to
  - slide down to       ~  - vibrato
h  - hammer on           b  - Bend
p  - pull off            Suffixes for bend
t  - tap                 f  - full bend    h - half bend
ph - pinched harmonic    q  - quarter bend t - tap bend
*  - see comment         ^  - Hold bend    r release bend
x  - Stuccatto           ~  - vibrato bend
,  - slight palm mute    () - ghost note, sustained note
"  - tremolo note        <> - Trill

Tuning: D (D, G, C, F, A, D)

Riff 1

|---------|
|---------|
|---------| 8x
|-2--2--2-|
|-2--2--2-|
|-0--0--0-|

Riff 2

|--------------------|
|--------------------|
|--------------------| 4x
|-2--2--2--3-3-3-3-3-|
|-2--2--2--3-3-3-3-3-|
|-0--0--0--1-1-1-1-1-|
           . . . . .
Riff 3

|---------------------|
|---------------------|
|---------------------| 4x
|---------------------|
|---------------------|
|-0-0-1-0-3-0-0-0-4-3-|

Riff 4

|--------------------------------|
|--------------------------------|
|--------------------------------|
|-2-2-2-2-2--3--2--5--2-2-2--6-5-| 8x
|-2-2-2-2-2--3--2--5--2-2-2--6-5-|
|-0-0-0-0-0--1--0--3--0-0-0--4-3-|
  . . . . .     .     . . .

Riff 5

|-----------|
|-----------|
|-----------| 8x
|-2--3-5--2-|
|-2--3-5--2-|
|-0--1-3--0-|

Riff 6

|---------------------------------------------------------|
|---------------------------------------------------------|
|---------------------------------------------------------| 8x
|-8-----7-----3--5-------2-------8-----7-----3--5-------2-|
|-8-----7-----3--5-------2-------8-----7-----3--5-------2-|
|-6--0--5--0--1--3--0-0--0--0-0--6--0--5--0--1--3--0-0--0-|
     .     .        . .     . .     .     .        . .

Riff 7

|---------------|
|---------------|
|---------------|
|-5--7-5--7-8-7-|8x
|-5--7-5--7-8-7-|
|-3--5-3--5-8-5-|

Fill In

|----------|
|----------|
|----------|
|-2-2--2-2-| 1x
|-2-2--2-2-|
|-0-0--0-0-|
  . .  . .

Riff 6: 8x
Riff 7: 8x
Fill In: 1x
Riff 1: 4x
Riff 8

|-----------|
|-----------|
|-----------| 4x
|-2--2--2---|
|-2--2--2---|
|-0--0--0-2~|

Riff 2: 4x
Riff 3: 4x
Riff 4: 8x
Riff 5: 8x
Riff 6: 8x
Riff 7: 8x
Fill In: 1x
Riff 6: 8x
Riff 7: 8x
Fill In: 1x
Riff 2: 4x
Riff 8: 4x
Riff 1: 8x

  Visit MetalTabs.com for more metal tablature

bottom separator

Contact Us | Privacy Policy | Disclaimer | Legal Notice
Copyright © 2001-2014 MetalTabs.com. All Rights Reserved.