top separator

Home

Forum

What's New

Submit a Tab

FAQ

Links

Contact Us

Link to Us

MetalTabs.com logo

Bands

0-9

A

B

C

D

E

F

G

H

I

J

K

L

M

N

O

P

Q

R

S

T

U

V

W

X

Y

Z

Search

What

Where
 

Summers End - "Haunting Hallowed Graves" Guitar Tab

Plain Text Version
More Summers End Tabs

Hits: 2281
Updated: 2006-06-26 07:12:24

 

By:

mrmastodon32690

sendpm.gif

email.gif

Important note
This tab is available online because we obtained explicit permission from Summers End or their label.


#----------------------------------PLEASE NOTE---------------------------------#
#This file is the author's own work and represents their interpretation of the #
#song. You may only use this file for private study, scholarship, or research. #
#Unless specified otherwise, this is NOT an official tab from the band members.#
#------------------------------------------------------------------------------#

  Visit MetalTabs.com for more metal tablature
  
Band:  Summer's End
Album: Summer's End
Song:  Haunting Hollowed Graves

Copyright (c)  Eulogy Recordings (2004)
Version 1.0 - 03/03/06

Transcribed By: mrmastodon32690
Email:          mrmastodon32690@aol.com

(I haven't figured out the solo yet, if anyone gets it, contact me and
I'll throw it on here and give you props)


.  - palm mute           /  - slide up to
\  - slide down to       ~  - vibrato
h  - hammer on           b  - Bend
p  - pull off            Suffixes for bend
t  - tap                 f  - full bend    h - half bend
ph - pinched harmonic    q  - quarter bend t - tap bend
*  - see comment         ^  - Hold bend    r release bend
x  - Stuccatto           ~  - vibrato bend
,  - slight palm mute    () - ghost note, sustained note
"  - tremolo note        <> - Trill

Tuning E A D G B D

D||-----------------------------------|-----------------------------------|
A||-----------------------------------|-----------------------------------|
F||-----------------------------------|-----------------------------------|
C||-----------------------------------|-----------------------------------|
G||------5---7---8---10---8---7---8-8-|------7---8---10---8---7---8---7-7~|
C||--0-0---0---0---0----0---0---0-----|--0-0---0---0----0---0---0---0-----|



----------------------------------|----------------------------------|
----------------------------------|----------------------------------|
----------------------------------|----------------------------------|
--------------5-------------------|----------------------------------|
------7---8-------8---7---8\---7-7~------7---8---7-7~---7---8\---7-7~
--5-5---5---5---5---5---5---5-----|--7-7---7---7-----8-8---8---8-----|



-----------------------------------|-----------------------------------|
-----------------------------------|-----------------------------------|
-----------------------------------|-----------------------------------|
-----------------------------------|-----------------------------------|
------5---7---8---10---8---7---8-8-|------7---8---10---8---7---8---7-7~|
--0-0---0---0---0----0---0---0-----|--8-8---8---8----8---8---8---8-----|



----------------------------------|----------------------------------|
----------------------------------|----------------------------------|
----------------------------------|----------------------------------|
--------------5-------------------|----------------------------------|
------7---8-------8---7---8---7-7~|------7---8---7-7-----7---8---7-7~|
--5-5---5---5---5---5---5---5-----|--7-7---7---7-----8-8---8---8-----|



-----------------------------------|-----------------------------------|
-----------------------------------|-----------------------------------|
-----------------------------------|-----------------------------------|
-----------------------------------|-----------------------------------|
------5---7---8---10---8---7\---8-8-|------7---8---10---8---7---8\-7-7~|
--0-0---0---0---0----0---0---0-----|--8-8---8---8----8---8---8---8-----|



----------------------------------|----------------------------------|
----------------------------------|----------------------------------|
----------------------------------|----------------------------------|
--------------5-------------------|----------------------------------|
------7---8-------8---7---8---7-7~|------7---8---7-7-----7---8---7-7~|
--5-5---5---5---5---5---5---5-----|--7-7---7---7-----8-8---8---8-----|



----------------------------------------|------------------------------------|
----------------------------------------|------------------------------------|
----------------------------------------|------------------------------------|
-----------------------7----------------|------------------------------------|
--0-0-0--0-0-0--7-8-10---10-8-7-8-7-4---|------8---7-------------8---7---5---|
--0-0-0--0-0-0--------------------------|--0-0---0---0-0-0-0-0-0---0---0---0-|



-------------------------------------------|
-------------------------------------------|
-------------------------------------------|
------------------------------7------------|
-----8---7-------------7-8-10---10-8-7-8-7-|
---0---0---0-0-0-0-0-0---------------------|



------------------------------------|------------------------------------|
------------------------------------|------------------------------------|
------------------------------------|------------------------------------|
------------------------------------|------------------------------------|
------8---7-------------8---7---5---|-----8---7-------------10---8---7---|
--0-0---0---0-0-0-0-0-0---0---0---0-|---0---0---0-0-0-0-0-0----0---0---0-|



------------------------------------|
------------------------------------|
------------------------------------|
------------------------------------|
------8---7-------------8---7---5---|
--0-0---0---0-0-0-0-0-0---0---0---0-|



-------------------------------------------|
-------------------------------------------|
-------------------------------------------|
------------------------------7------------|
-----8---7-------------7-8-10---10-8-7-8-7-|
---0---0---0-0-0-0-0-0---------------------|

  Visit MetalTabs.com for more metal tablature

bottom separator

Contact Us | Privacy Policy | Disclaimer | Legal Notice
Copyright © 2001-2014 MetalTabs.com. All Rights Reserved.