top separator

Home

Forum

What's New

Submit a Tab

FAQ

Links

Contact Us

Link to Us

MuSpy.com

MetalTabs.com logo

Bands

0-9

A

B

C

D

E

F

G

H

I

J

K

L

M

N

O

P

Q

R

S

T

U

V

W

X

Y

Z

Search

What

Where
 

Ensiferum - "Treacherous God" Guitar Tab

Plain Text Version
More Ensiferum Tabs

Hits: 13993
Rated: 4.11 out of 5 (9 votes)
Updated: 2006-08-17 03:52:57

 

By:

sendpm.gif

email.gif

Important note
This tab is available online because we obtained explicit permission from Ensiferum or their label.


#----------------------------------PLEASE NOTE---------------------------------#
#This file is the author's own work and represents their interpretation of the #
#song. You may only use this file for private study, scholarship, or research. #
#Unless specified otherwise, this is NOT an official tab from the band members.#
#------------------------------------------------------------------------------#

  Visit MetalTabs.com for more metal tablature
  
Band:  Ensiferum
Album: Ensiferum
Song:  Treacherous Gods

Copyright (c)  Spinefarm Records 2001
Version 1.0 - 6-12-06

Transcribed By: John
Email:          geetarplaya88@hotmail.com


.  - palm mute           /  - slide up to
  - slide down to       ~  - vibrato
h  - hammer on           b  - Bend
p  - pull off            Suffixes for bend
t  - tap                 f  - full bend    h - half bend
ph - pinched harmonic    q  - quarter bend t - tap bend
*  - see comment         ^  - Hold bend    r release bend
x  - Stuccatto           ~  - vibrato bend
,  - slight palm mute    () - ghost note, sustained note
"  - tremolo note        <> - Trill

Tuning E A D G B E
Intro (repeat 5x)
|-------------------------------------------------------------------|
|-------------------------------------------------------------------|
|-------------------------------------------------------------------|
|-----5-5----5-5-----5-5---5-5----5-5---5-5----3-3---3-3------------|
|------6------6-------8-----8------6-----6------6-----6-------------|
|-8-8-----8-8----8-8----8-8----8-8---8-8----6-6---6-6---------------|
Last line of intro
|-------------------------------------------------------------------|
|-------------------------------------------------------------------|
|-------------------------------------------------------------------|
|-----5-5----5-5-----5-5---5-5----5-5---5-5-------------------------|
|------6------6-------8-----8------6-----6--------------------------|
|-8-8-----8-8----8-8----8-8----8-8---8-8----6--3--8-----------------|

Verse
Lead 1 (continue throughout verse)
|---------------------------------------------------------------------------|
|---------------------------------------------------------------------------|
|---------------------------------------------------------------------------|
|---------------------------------------------------------------------------|
|-10-6-10---10-6-10---11-8-11---11-8-11---10-6-10---10-6-10---9-6-9---9-6-9-|
|---------------------------------------------------------------------------|

Rhythm 1
|----------------------------|
|----------------------------|
|----------------------------|
|-10--3--6--8---10--3-5-4--8-|
|-10--3--6--8---10--3-5-4--8-|
|-8---1--4--6---8---1-3-6--6-|

|-----------------------------------------------------------------|
|-----------------------------------------------------------------|
|-----------------------------------------------------------------|
|-101010101010101010101010-333333333333-666666666666-888888888888-|
|-101010101010101010101010-333333333333-666666666666-888888888888-|
|-8-8-8-8-8-8-8-8-8-8-8-8--111111111111-444444444444-666666666666-|
pm...............................................................
|-------------------------------------------------------------|
|-------------------------------------------------------------|
|-------------------------------------------------------------|
|-101010101010101010101010-333333333333-666666666666-8-555-10-|
|-101010101010101010101010-333333333333-666666666666-8-555-10-|
|-8-8-8-8-8-8-8-8-8-8-8-8--111111111111-444444444444-6-333-8--|
pm..................................................   ...
Chorus 4x
|----------------------------|
|----------------------------|
|--------5-555--3-333--5-555-|
|-3-333--5-555--3-333--5-555-|
|-3-333--3-333--1-111--3-333-|
|-1-111----------------------|
    ...    ...    ...    ...
|----------------------------|
|----------------------------|
|----------------------------|
|----------------------------|
|-8--8-6---6-----------------|
|-------10---8--10--10-8-6-8-|

After chorus 4x
|--------------------------------------------------|
|--------------------------------------------------|
|--------------------------------------------------|
|---------------------------------------------12-8-|
|------------10-8-8-8-8-----------------------12-8-|
|-8-8-8-8-11-----------11-10-11-11-11-11-10-8-10-6-|
pm...........................................|open

Verse 2
rhythm
|---------------------------------------------------------------------|
|---------------------------------------------------------------------|
|---------------------------------------------------------------------|
|-10-5--8--10-13-131313-13-131313-------------------------------------|
|-10-5--8--10-13-131313-13-131313-8-888-888-8-888-10-101010-10-101010-|
|-8--3--6--8--11-111111-11-111111-6-666-666-6-666-8--8-8-8--8--8-8-8--|
                 . . .     . . .    ... ...   ...    . . .     . . .
2x
|--------------------------------------------|
|--------------------------------------------|
|--------------------------------------------|
|10-101010-10-101010-5-555-5-555-8-888-8-888-|
|10-101010-10-101010-5-555-5-555-8-888-8-888-|
|8--8-8-8--8--8-8-8--3-333-3-333-6-666-6-666-|
    . . .     . . .    ...   ...   ...   ...
Lead
|---------------------------------------------------------------------------|
|---------------------------------------------------------------------------|
|---------------------------------------------------------------------------|
|---------------------------------------------------------------------------|
|-6-5-8-6-5--5-6--5--------6-5---8-6-5--5-6-5----------8--------------------|
|8---6------8-------8---8-----6------8-------8--8-10-11-11-10-11-10-8-10-86-|

Chorus 4x
|----------------------------|
|----------------------------|
|--------5-555--3-333--5-555-|
|-3-333--5-555--3-333--5-555-|
|-3-333--3-333--1-111--3-333-|
|-1-111----------------------|
    ...    ...    ...    ...
|----------------------------|
|----------------------------|
|----------------------------|
|----------------------------|
|-8--8-6---6-----------------|
|-------10---8--10--10-8-6-8-|


After chorus 2x
|--------------------------------------------------|
|--------------------------------------------------|
|--------------------------------------------------|
|---------------------------------------------12-8-|
|------------10-8-8-8-8-----------------------12-8-|
|-8-8-8-8-11-----------11-10-11-11-11-11-10-8-10-6-|
pm...........................................|open

Verse 3 2x
|-----------------------------------------------------------------------------|
|-----------------------------------------------------------------------------|
|-----------------------------------------------------------------------------|
|101010-555-888-101010-13-131313-13-131313------------------------------------|
|101010-555-888-101010-13-131313-13-131313-8-888-888-8-888-10-101010-10-10101-|
|8-8-8--333-666-8-8-8--11-111111-11-111111-6-666-666-6-666-8--8-8-8--8--8-8-8-|
                          . . .     . . .    ... ...   ...    . . .  .  . . .
Lead tacet until second time throught
|-------------------------------|
|-------------------------------|
|-------------------------------|
|-------------------------------|
|---------8---------------------|
|-8-10-11--11-10-11-10-8-10-8-6-|

Chorus 4x
|----------------------------|
|----------------------------|
|--------5-555--3-333--5-555-|
|-3-333--5-555--3-333--5-555-|
|-3-333--3-333--1-111--3-333-|
|-1-111----------------------|
    ...    ...    ...    ...
|----------------------------|
|----------------------------|
|----------------------------|
|----------------------------|
|-8--8-6---6-----------------|
|-------10---8--10--10-8-6-8-|

After chorus
|---------------------------------------------------------------------------|
|---------------------------------------------------------------------------|
|---------------------------------------------------------------------------|
|---------------------------------------------------------------------------|
|-10-6-10---10-6-10---11-8-11---11-8-11---10-6-10---10-6-10---9-6-9---9-6-9-|
|---------------------------------------------------------------------------|

Rhythm
|--------------------------------------------------| ------------|
|--------------------------------------------------| ------------|
|--------------------------------------------------| ------------|
|--------------------------------------------------| --121212-10-|
|--------------------------------------------------| --121212-10-|
|-888888888888888888888888666666666666888888888888-| --101010-8--|
...................................................

Bridge
|-------------------------------------------------------------|
|-------------------------------------------------------------|
|-------------------------------------------------------------|
|-------------------------------------------------------------|
|-------------------------------------------------------------|
|-8-888-888-888-888-888-888-888-888-888-888-888-888-888-888---|
..............................................................

|--------------------------|
|--------------------------|
|--------------------------|
|-xx-10--------------10----|
|-xx-10--------------10----|
|-xx-8---------------8-----|

4x
|-----------------------------------------------------------------------|
|-----------------------------------------------------------------------|
|---------------------------------------------8-888-88------------------|
|-10-101010-101010-101010-10105-555-555-555-558-888-888-888-88-10-9--10-|
|-10-101010-101010-101010-10105-555-555-555-556-666-668-888-88-10-10-10-|
|-8--8-8-8--8-8-8--8-8-8--8-8-3-333-333-333-33--------6-666-66-8--7--8--|
..............................................................

Lead
|---------------------------------------|
|------------------6--------------------|
|-5--7-8-7-5----7-8-8-8---5-7-8-7-5-4-5-|
|------------8----------8---------------|
|---------------------------------------|
|---------------------------------------|

Chorus
2x
|----------------|
|----------------|
|-----5---5---5--|
|-3---5---3---5--|
|-3---3---1---3--|
|-1--------------|
2x
|----------------------------|
|----------------------------|
|--------5-555--3-333--5-555-|
|-3-333--5-555--3-333--5-555-|
|-3-333--3-333--1-111--3-333-|
|-1-111----------------------|
    ...    ...    ...    ...

Outro
4x
|-----------------------------------------------------------------------|
|-----------------------------------------------------------------------|
|---------------------------------------------8-888-88------------------|
|-10-101010-101010-101010-10105-555-555-555-558-888-888-888-88-10-8--10-|
|-10-101010-101010-101010-10105-555-555-555-556-666-668-888-88-10-8--10-|
|-8--8-8-8--8-8-8--8-8-8--8-8-3-333-333-333-33--------6-666-66-8--6--8--|
..............................................................

  Visit MetalTabs.com for more metal tablature

bottom separator

Contact Us | Privacy Policy | Disclaimer | Legal Notice
Copyright © 2001-2014 MetalTabs.com. All Rights Reserved.