top separator

Home

Forum

What's New

Submit a Tab

FAQ

Links

Contact Us

Link to Us

MetalTabs.com logo

Bands

0-9

A

B

C

D

E

F

G

H

I

J

K

L

M

N

O

P

Q

R

S

T

U

V

W

X

Y

Z

Search

What

Where
 

Pestilence - "Changing Perspectives" Bass Tab

Plain Text Version
More Pestilence Tabs

Hits: 2370
Rated: 5.00 out of 5 (2 votes)
Updated: 2006-06-25 08:22:54

 

By:

epitaph

sendpm.gif

email.gif

Important note
This tab is available online because we obtained explicit permission from Pestilence or their label.


#----------------------------------PLEASE NOTE---------------------------------#
#This file is the author's own work and represents their interpretation of the #
#song. You may only use this file for private study, scholarship, or research. #
#Unless specified otherwise, this is NOT an official tab from the band members.#
#------------------------------------------------------------------------------#

  Visit MetalTabs.com for more metal tablature
  
Band: Pestilence
Album: Spheres
Song: Changing Perspectives

Copyright (c)  Roadrunner Records 1993
Version 1.0 - 18th of May, 2006

Transcribed By: Lassi Nurminen
Email: Gaborik10@hotmail.com / Gaborik@welho.com

Tuning: BEADG (Altough Jeroen used a six string bass)

0:12
|-----------------------|
|----------------5---5--| Four
|-----------------------| Times
|-2--2-2--2--2-2---3----|
|-----------------------|

0:33 Play the whole thing twice
|---------------------|
|---------------------| Three
|-------1--------1-0--| Times
|-0-1-0----0-1-0------|
|---------------------|
Continues:
|---------------------|
|---------------------| Fourth
|-------1--------2-0--| Time
|-0-1-0----0-1-0------|
|---------------------|

0:50
|-----------------------|
|----------------5---5--| Twice
|-----------------------|
|-2--2-2--2--2-2---3----|
|-----------------------|

0:58
|------------------------------|
|-------------------------5----| Twice
|------------------------------|
|-2-x-x-2-----2-x-x-2-2-3---3--|
|---------1-2------------------|

1:06 Play the whole thing twice
|---------------------|
|---------------------| Three
|-------1--------1-0--| Times
|-0-1-0----0-1-0------|
|---------------------|
Continues:
|---------------------|
|---------------------| Fourth
|-------1--------2-0--| Time
|-0-1-0----0-1-0------|
|---------------------|

1:22
|-----------------------|
|----------------5---5--| Twice
|-----------------------|
|-2--2-2--2--2-2---3----|
|-----------------------|

1:31
|------------------|
|-7-----8-----9----| Eight
|------------------| Times
|---5-5---6-6---7--|
|------------------|

1:42
|--------------------------------|
|-------4------5---8-7----9-8----|
|--------------------------------|
|-7-4-5----5-6---------8------9--|
|--------------------------------|

|------------------------------|
|-----4------5---8-7----9-8----| Three
|------------------------------| Times
|-4-5----5-6---------8------9--|
|------------------------------|

1:58
|-----------------------|
|----------------5---5--| Four
|-----------------------| Times
|-2--2-2--2--2-2---3----|
|-----------------------|

2:14
|------------------|
|-7-----8-----9----| Three
|------------------| Times
|---5-5---6-6---7--|
|------------------|
And this for the fourth time:
|--------------|
|-7-----8------|
|--------------|
|---5-5---6-6--|
|--------------|

2:19
|----------------------|
|-9----8----7----8-----| Seven
|----------------------| Times
|---77---66---55---66--|
|----------------------|
And this for the eight time:
|------------|
|-9----8-----|
|------------|
|---77---66--|
|------------|

2:34 Play the whole thing twice
|---------------------|
|---------------------| Three
|-------1--------1-0--| Times
|-0-1-0----0-1-0------|
|---------------------|
Continues:
|---------------------|
|---------------------| Fourth
|-------1--------2-0--| Time
|-0-1-0----0-1-0------|
|---------------------|

2:50
|-----------------------|
|----------------5---5--| Twice
|-----------------------|
|-2--2-2--2--2-2---3----|
|-----------------------|

2:58
|------------------------------|
|-------------------------5----| Twice
|------------------------------|
|-2-x-x-2-----2-x-x-2-2-3---3--|
|---------1-2------------------|

3:06
|------------------|
|-7-----8-----9----| Eight
|------------------| Times
|---5-5---6-6---7--|
|------------------|

3:17
|--------------------------|
|-----4-8-7-0-----5-9-8-0--|
|--------------------------|
|-4-5---------5-6----------|
|--------------------------|

Thats it!

  Visit MetalTabs.com for more metal tablature

bottom separator

Contact Us | Privacy Policy | Disclaimer | Legal Notice
Copyright © 2001-2014 MetalTabs.com. All Rights Reserved.