top separator

Home

Forum

What's New

Submit a Tab

FAQ

Links

Contact Us

Link to Us

MuSpy.com

MetalTabs.com logo

Bands

0-9

A

B

C

D

E

F

G

H

I

J

K

L

M

N

O

P

Q

R

S

T

U

V

W

X

Y

Z

Search

What

Where
 

Decapitated - "Nihility (Anti-Human Manifesto)" Guitar Tab

Plain Text Version
More Decapitated Tabs

Hits: 11664
Rated: 4.29 out of 5 (7 votes)
Updated: 2006-06-25 08:22:34

 

By:

Robbie Filth

sendpm.gif

email.gif

Important note
This tab is available online because we obtained explicit permission from Decapitated or their label.


#----------------------------------PLEASE NOTE---------------------------------#
#This file is the author's own work and represents their interpretation of the #
#song. You may only use this file for private study, scholarship, or research. #
#Unless specified otherwise, this is NOT an official tab from the band members.#
#------------------------------------------------------------------------------#

  Visit MetalTabs.com for more metal tablature
  
Band: Decapitated
Album: Nihility
Song: Nihility (Anti-Human Manifesto)
Record Label: Earache
Tuning: D G C F A D

-------------
-------------
-------------
-------5--6--
-2--3--3--4--
-0--1--3--4--

-----------------------------------------------------
-----------------------------------------------------
-----------------------------------------------------
-----------------------------------------------------
--------------------------------------------------2--
-01134444-01101134443444-01134444-011011344434444-0--
pm  .     .  .           .  .     .  .

---------------------------------------------------------------
---------------------------------------------------------------
---------------------------------------------------------------
---------------------------------------------------------------
---------------------------------------slide\pickscrape\slide--
-01134444-01101134443444-01134444-0110-\\\\\\\\\\\\\\\\\\\\\\--
pm  .     .  .           .  .     .  .

-----------------------------------------------------
-----------------------------------------------------
-----------------------------------------------------
-----------------------------------------------------
--------------------------------------------------2--
-01134444-01101134443444-01134444-011011344434444-0--
pm  .     .  .           .  .     .  .

-------------------------------------------------------------
-------------------------------------------------------------
-------------------------------------------------------------
--------------------------------------------------4----------
--------------------------------------------------2-333------
-01134444-01101134443444-01134444-011011344434444-------000--
pm  .     .  .           .  .     .  .              ... ...

----------------------------------------------------
----------------------------------------------------
----------------------------------------------------
---6-------5-----------3-4-6-------5----------------
---4---6\5-3---4---3---1-2-4---6\5-3---4---3-2-2-2--
-0---0-4\3---0-2-0-1-0-------0-4\3---0-2-0-1-0-0-0--
pm   .       .   .   .       .       .       . . .

------------------------------------------
------------------------------------------
------------------------------------------
---6-------5-----------3-4-6-------5------
---4---6\5-3---4---3---1-2-4---6\5-3---4--
-0---0-4\3---0-2-0-1-0-------0-4\3---0-2--
pm   .       .   .   .       .       .

---------------------------------------------------
---------------------------------------------------
---------------------------------------------------
---6-------5-----------3-4-6-------5---------------
---4---6\5-3---4---3---1-2-4---6\5-3---4---3-2222--
-0---0-4\3---0-2-0-1-0-------0-4\3---0-2-0-1-0000--X2
pm   .       .   .   .       .       .       ....

-----------------------------------------------------
-----------------------------------------------------
-----------------------------------------------------
---6-------5-----------3-4-6-------5---------*-------
---4---6-5-3---4---3---1-2-4---6-5-3---4---3-10\\\\--
-0---0-4-3---0-2-0-1-0-------0-4-3---0-2-0-1---------
pm . . . .   . . . . . . . . . . .   . . . .
*pm and trem pick as it slides down.

----------------------------------------------------
----------------------------------------------------
----------------------------------------------------
---6-------5-----------3-4-6-------5----------------
---4---6-5-3---4---3---1-2-4---6-5-3---4---3-222-2--
-0---0-4-3---0-2-0-1-0-------0-4-3---0-2-0-1-000-0--
pm . . . .   . . . . . . . . . . .   . . .   ...

----------------------
----------------------
----------------------
----------------------
-2-2-2---2---2-2-2-2--
-0-0-0---0---0-0-0-0--

-----------------------------------------------------
-----------------------------------------------------
-----------------------------------------------------
-----------------------------------------------------
--------------------------------------------------2--
-01134444-01101134443444-01134444-011011344434444-0--
pm  .     .  .           .  .     .  .

------------------------------------------------------------
------------------------------------------------------------
------------------------------------------------------------
---------------------------------------------------------4--
-----3333--------3333---3333-----3333--------3333---3333-2--
-013------013013------0------013------013013------0---------
pm..      ......      .      ...      ......      .

-------------------------------------------
-------------------------------------------
-------------------------------------------
-------------------------------------------
-----3333--------3333---3333-----3333---2--
-013------013013------0------013------0-0--
pm..      ......      .      ...      .

----------------
----------------
----------------
-------------4--
-555-3-4-555-3--
-333-1-2-333-2--
 ... . . ...

---------------------------------------------------------
---------------------------------------------------------
---------------------------------------------------------
---------------------------------------------------------
----543---654543----543654543---654543---543654543-7--6--
-543---543-------543---------543------543----------5--4--
 pm...............................................

--------------------------------------------------
--------------------------------------------------
--------------------------------------------------
--------------------------------------------------
-----543---654543----543654543----222222-3-5-4-6--
--543---543-------543---------543-000000-1-3-2-4--
  pm....................................

-----------------------------------------------------------------------------
-----------------------------------------------------------------------------
-----------------------------------------------------------------------------
-----------------------------------------------------------------------------
----543---654543---543654543---654543---543654543765654---654543---543654543-
-543---543------543---------543------543---------------543------543----------
  pm........................................................................

------------------------------------------------------------------------------
------------------------------------------------------------------------------
------------------------------------------------------------------------------
------------------------------------------------------------------------------
-----222222-5-6-4-6----543---654543---543654543---654543---543654543---543----
-543-000000-1-3-2-4-543---543------543---------543------543---------543---543-
 pm. ......         .........................................................

----------------------------------------------------------------------------
----------------------------------------------------------------------------
----------------------------------------------------------------------------
----------------------------------------------------------------------------
-654543---543654543----222222-3-5-4-6----543---654543---543654543---654543--
-------543---------543-000000-1-3-2-4-543---543------543---------543--------
 pm..........................         ....................................

--------------------------------------------------------------------------
--------------------------------------------------------------------------
--------------------------------------------------------------------------
--------------------------------------------------------------------------
----543654543-7--6----543---654543---543654543----22222-3-5-4-6--3-5-4-6--
-543----------5--4-543---543------543---------543-00000-1-3-2-4--1-3-2-4--
 pm..........      ....................................          . . . .

*drum fill*

----------------------------------(X2)----------------------------------------
------------------------------------------------------------------------------
------------------------------------------------------------------------------
-----------------------2-2-2-2-2-2--------------------------------------------
-----7-----7-----------3-3-3-2-2-2-----7-----7-5554--4-5-4-5--5--4-5-4--------
-0-3---6-0---3-6-0-0-0-------------0-3---6-0---3332--2-3-2-3--3--2-3-2-\\\\\\-
 trem......................................... pm.   . . . .     . . .
\ = slide down.

----------------------------------------
----------------------------------------
----------------------------------------
-------------------------------4-----5--
-2222-2----2222-2--------------3-----4--
-0000-0----0000-0--1-2-1-4-222---444----X3
 pm..      ....    trem... pm.   ...

-----------------------------------------
-----------------------------------------
-----------------------------------------
--------------------------------4-----5--
-2222-2----2--------------------3-----4--
-0000-0----0-------1-2-1-4-222---444-----
 pm..              trem... pm.   ...

--------------------------------------------------------------------
--------------------------------------------------------------------
--------------------------------------------------------------------
--------------------------------------------------------------------
-2-5-2-1-----------------5---4---222-5-2-1-----------------5--------
-0-3-----3-2-3-5-6-0-3-0---3---3-000-3-----3-2-3-5-6-0-3-0---3-2-3--
 pm.                             ...
     trem.......................       ...........................

-------------------------------------
-------------------------------------
-------------------------------------
-5------------------5----------------
-3-4---2-3-----4----3-4---2-3-----4--
---2-1-----2-3--------2-1-----2-3----
     trem........       ............

--------------------------------------------------
--------------------------------------------------
--------------------------------------------------
-2---------------5---------------5----------------
-0-5-2-1-------2-3-4---2-3-----4-3-4---2-3-----4--
---3-----3-2-3-----2-1-----2-3-----2-1-----2-3----
 pm. trem.......     ...........     ............

-------------------------------------------------------------------
-------------------------------------------------------------------
-------------------------------------------------------------------
-2---------------5---------------5---------------------------------
-0-5-2-1-------2-3-4---2-3-----4-3-4---2-3-----4--9-10-8-----------
---3-----3-2-3-----2-1-----2-3-----2-1-----2-3----6--8-6-\\\\\\\\--
  pm trem.......     ...........     ..........pm    .   slide down.

-------------------------------------
-------------------------------------
-------------------------------------
-2h3-----4-3-----3--4-----5-4--------
-0h1-4-3-2-1-4-3-1--2-4-3-3-2-5-4-6--
-----2-1-----2-1------2-1-----3-2-4--
     pm. . . . . .    . .     . . .

---------------------------------------------------------------------
---------------------------------------------------------------------
---------------------------------------------------------------------
-----------------------------------5------------------------5--------
-2-------1111-----2-------1111-----3-4-----2-------1111-----3-4------
-0-000303----0303-0-000303----0303---2-111-0-000303----0303---2-111--X2
   pm....    ....   ......    ....     ...   ......    ....     ...

-------------------------------------------------------------
-------------------------------------------------------------
-------------------------------------------------------------
----------------------------------------------------5--------
-2-------1111-----2-------1111-----2-------1111-----3-4------
-0-000303----0303-0-000303----0303-0-000303----0303---2-111--
   pm....    ....   ......    ....   ......    ....     ...

-----------------------------------------------------------------------------
-----------------------------------------------------------------------------
-----------------------------------------------------------------------------
----------------------------------------------------5-------4-3-----3-4------
-2-------1111-----2-------1111-----2-------1111-----3-4-----2-1-4-3-1-2-5-6--
-0-000303----0303-0-000303----0303-0-000303----0303---2-111-----2-1-----3-4--
   pm....    ....   ......    ....   ......    ....     ... . . . . . . . .

-----------------------------------------------------
-----------------------------------------------------
-----------------------------------------------------
-----------------------------------------------------
--------------------------------------------------2--
-01134444-01101134443444-01134444-011011344434444-0--
pm  .     .  .           .  .     .  .

------------------------------------------------------------
------------------------------------------------------------
------------------------------------------------------------
---------------------------------------------------------4--
-----3333--------3333---3333-----3333--------3333---3333-2--
-013------013013------0------013------013013------0---------X2
pm..      ......      .      ...      ......      .

----------------------------------------------------
----------------------------------------------------
----------------------------------------------------
---6-------5-----------3-4-6-------5----------------
---4---6\5-3---4---3---1-2-4---6\5-3---4---3-2-2-2--
-0---0-4\3---0-2-0-1-0-------0-4\3---0-2-0-1-0-0-0--
pm   .       .   .   .       .       .       . . .

------------------------------------------
------------------------------------------
------------------------------------------
---6-------5-----------3-4-6-------5------
---4---6\5-3---4---3---1-2-4---6\5-3---4--
-0---0-4\3---0-2-0-1-0-------0-4\3---0-2--
pm   .       .   .   .       .       .

---------------------------------------------------
---------------------------------------------------
---------------------------------------------------
---6-------5-----------3-4-6-------5---------------
---4---6\5-3---4---3---1-2-4---6\5-3---4---3-2222--
-0---0-4\3---0-2-0-1-0-------0-4\3---0-2-0-1-0000--
pm   .       .   .   .       .       .       ....

----------------------------------------------------
----------------------------------------------------
----------------------------------------------------
---6-------5-----------3-4-6-------5----------------
---4---6\5-3---4---3---1-2-4---6\5-3---4---3-2-2-2--
-0---0-4\3---0-2-0-1-0-------0-4\3---0-2-0-1-0-0-0--
pm   .       .   .   .       .       .       . . .

----------------------------------------------------
----------------------------------------------------
----------------------------------------------------
---6-------5-----------3-4-6-------5----------------
---4---6-5-3---4---3---1-2-4---6-5-3---4---3-2-222--
-0---0-4-3---0-2-0-1-0-------0-4-3---0-2-0-1-0-000--X12
pm . . . .   . . . . . . . . . . .   . . .   ...

THE END

any corrections mail them to: septic_flesh241@hotmail.com

  Visit MetalTabs.com for more metal tablature

bottom separator

Contact Us | Privacy Policy | Disclaimer | Legal Notice
Copyright © 2001-2014 MetalTabs.com. All Rights Reserved.