top separator

Home

Forum

What's New

Submit a Tab

FAQ

Links

Contact Us

Link to Us

MetalTabs.com logo

Bands

0-9

A

B

C

D

E

F

G

H

I

J

K

L

M

N

O

P

Q

R

S

T

U

V

W

X

Y

Z

Search

What

Where
 

Place of Skulls - "Prisoner's Creed" Guitar Tab

Plain Text Version
More Place of Skulls Tabs

Hits: 2275
Updated: 2006-08-17 03:03:00

 

By:

Dahmers Fridge

sendpm.gif

email.gif

Important note
This tab is available online because we obtained explicit permission from Place of Skulls or their label.


#----------------------------------PLEASE NOTE---------------------------------#
#This file is the author's own work and represents their interpretation of the #
#song. You may only use this file for private study, scholarship, or research. #
#Unless specified otherwise, this is NOT an official tab from the band members.#
#------------------------------------------------------------------------------#

  Visit MetalTabs.com for more metal tablature
  
Band:  Place of Skulls
Album: The Black is Never Far
Song:  Prisoner's Creed
Copyright (c)  (Exile on Mainstream) (2006)
Version 1.0 - (15/05/06)

Transcribed By: Steve
Email:          stephen.elvidge1@ntlworld.com


.  - palm mute           /  - slide up to
\  - slide down to       ~  - vibrato
h  - hammer on           b  - Bend
p  - pull off            Suffixes for bend
t  - tap                 f  - full bend    h - half bend
ph - pinched harmonic    q  - quarter bend t - tap bend
                         p  - pre bend
*  - see comment         ^  - Hold bend    r release bend
x  - Stuccatto           ~  - vibrato bend
,  - slight palm mute    () - ghost note, sustained note
"  - tremolo note        <> - harmonic

Tuning Drop D half step down


   Fade in
|-------------------------------------------------------------------|
|-------------------------------------------------------------------|
|-7<---------------------------(7)----------------------------------|
|-7<---------------------------(7)----------------------------------|
|-5<---------------------------(5)----------------------------------|
|-0<---------------------------(0)----------------------------------|

 Main riff

|-----------------------------------|
|-----------------------------------|
|-----------------------------------|
|-5----/11-13-11\10\---8-8-10-10-8\-|
|-5----/11-13-11\10\---8-8-10-10-8\-|
|-5----/11-13-11\10\-x-8-8-10-10-8\-|

|-----------------------------------|
|-----------------------------------|
|-----------------------------------|
|-5----/11-13-11\10\-----8-10-10-8\-|
|-5----/11-13-11\10\-----8-10-10-8\-|
|-5----/11-13-11\10\-x<7>8-10-10-8\-|

 Rpt above


 Lead over main riff

   ~~~~~~~  ~~~~~~~~~~~~~~~~~~~~~~~~~~~~~~~~~~~~~~~~~~~~~~~~~~~~~~~~~~
|---------------------------------------------------------------------|
|-13b-pb13r13-11--------------------13b-pb13r13-11--------------------|
|----------------12-10-12/15-15br12----------------12-10-12/15-15b----|
|---------------------------------------------------------------------|
|---------------------------------------------------------------------|
|---------------------------------------------------------------------|
                                                               Rpt

 Verse Riff

|-------------------------------|
|-------------------------------|
|-------------------------------|
|-5-5-/8-8--10-10-8--10p8p--8-\-|
|-5-5-/8-8--10-10-8--10p8p--8-\-|
|-5-5-/8-8--10-10-8--10p8p0-8-\-| Rpt 6 X

 Chorus

 Guitar 1
[---------------------------------|
[---------------------------------|
[---------------------------------|
[-8-7--5--7/8-/11-10-8-\5-5\-x-x--|
[-8-7--5--7/8-/11-10-8-\5-5\-x-x--|
[-8-7--5--7/8-/11-10-8-\5-5\-x-x--|
[Guitar 2
[               ~~~~~~
[---------------------------------|
[-1110-8-10/11-13br--11-1010\-----|
[---------------------------------|
[---------------------------------|
[---------------------------------|
[---------------------------------|

 Guitar 1
[---------------------------------|
[---------------------------------|
[---------------------------------|
[-8-7--5--7/8-/11-10-8--7-8\-x-x--|
[-8-7--5--7/8-/11-10-8--7-8\-x-x--|
[-8-7--5--7/8-/11-10-8--7-8\-x-x--|
[Guitar 2
[              ~~~~~~      ~~~~~~~
[---------------------------------|
[-1110-8-10/11-13br--11-1010b-----|
[---------------------------------|
[---------------------------------|
[---------------------------------|
[---------------------------------|

 Rpt Above

 Rpt Verse
 Rpt Chorus

 Guitar 1
[----------------------------------------|
[----------------------------------------|
[----------------------------------------|
[-10--(10)--10--(10)--10--(10)--10--(10)-|
[-10--(10)--10--(10)--10--(10)--10--(10)-|
[-10--(10)--10--(10)--10--(10)--10--(10)-|
[Guitar 2
[----------------------------------------|
[----------------------------------------|
[--3-/5--5/7--7/8--8/1010\8--8\7--7\5--5\|
[----------------------------------------|
[--1-/3--3/5--5/6--6/8--8\6--6\5--5\3--3\|
[----------------------------------------|

 Guitar 1
      PM   PM    PM    PM
[--------------------------------|
[--------------------------------|
[--------------------------------|
[--------------------------------|
[-5-6---3-5---3----3-5---2-------|
[-5-6-0-3-5-0-3--0-3-5-0-2--x-x--|
[Guitar 2
[     PM   PM ~~~PM    PM~~~
[--------------------------------|
[--------------------------------|
[--------------------------------|
[--------------------------------|
[-5-6---3-5--------3-5-----------|
[-5-6-0-3-5-0-3--0-3-5-0-2--x-x--|




 Guitar 1
[----------------------------------------|
[----------------------------------------|
[----------------------------------------|
[-10--(10)--10--(10)--10--(10)--10--(10)-|
[-10--(10)--10--(10)--10--(10)--10--(10)-|
[-10--(10)--10--(10)--10--(10)--10--(10)-|
[Guitar 2
[----------------------------------------|
[----------------------------------------|
[--3-/5--/7--/8--/10---12-\10---(10)-----|
[----------------------------------------|
[--1-/3--/5--/6--/8----10-\8----(8)------|
[----------------------------------------|

 Guitar 1
      PM   PM    PM    PM
[--------------------------------|
[--------------------------------|
[--------------------------------|
[--------------------------------|
[-5-6---3-5---3----3-5---2-------|
[-5-6-0-3-5-0-3--0-3-5-0-2--x-x--|
[Guitar 2
[     PM   PM ~~~PM    PM~~~
[--------------------------------|
[--------------------------------|
[--------------------------------|
[--------------------------------|
[-5-6---3-5--------3-5-----------|
[-5-6-0-3-5-0-3--0-3-5-0-2--x-x--|

 Guitar 1
[----------------------------------------|
[----------------------------------------|
[----------------------------------------|
[-10--(10)--10--(10)--10--(10)--10--(10)-|
[-10--(10)--10--(10)--10--(10)--10--(10)-|
[-10--(10)--10--(10)--10--(10)--10--(10)-|
[Guitar 2
[
[----------------------------------------|
[----------------------------------------|
[-12-\10-10-\8-8-\7--5--5-\-3-/5--(5)----|
[----------------------------------------|
[-10-\8--8--\6-6-\5--3--3-\-1-/3--(3)----|
[----------------------------------------|

 Guitar 1
      PM   PM    PM    PM
[--------------------------------|
[--------------------------------|
[--------------------------------|
[--------------------------------|
[-5-6---3-5---3----3-5---2-------|
[-5-6-0-3-5-0-3--0-3-5-0-2--x-x--|
[Guitar 2
[     PM   PM ~~~PM    PM~~~
[--------------------------------|
[--------------------------------|
[--------------------------------|
[--------------------------------|
[-5-6---3-5--------3-5-----------|
[-5-6-0-3-5-0-3--0-3-5-0-2--x-x--|

 Guitar 1
[----------------------------------------|
[----------------------------------------|
[----------------------------------------|
[-10--(10)--10--(10)--10--(10)--10--(10)-|
[-10--(10)--10--(10)--10--(10)--10--(10)-|
[-10--(10)--10--(10)--10--(10)--10--(10)-|
[Guitar 2
[
[----------------------------------------|
[----------------------------------------|
[-5--/5--/7--/8--/10-/12--/17---(17)--\--|
[----------------------------------------|
[-1--/3--/5--/6--/8--/10--/15---(15)--\--|
[----------------------------------------|


  Slow Pick scrap
|-------------------|
|-------------------|
|-------------------|
|-\--\--------------|
|--\--\-------------|
|---\--\------------|


 Rpt Main Riff 2 X with lead fill
 Rpt Verse Riff 6 x
 Rpt Chorus

 Guitar 1
[---------------------------------|
[---------------------------------|
[---------------------------------|
[-8-7--5--7/8-/11-10-8--10-11-\---|
[-8-7--5--7/8-/11-10-8--10-11-\---|
[-8-7--5--7/8-/11-10-8--10-11-\---|
[Guitar 2
[              ~~~~~~      ~~~
[---------------------------------|
[-1110-8-10/11-13br--11-12-13--\--|
[---------------------------------|
[---------------------------------|
[---------------------------------|
[---------------------------------|



END

  Visit MetalTabs.com for more metal tablature

bottom separator

Contact Us | Privacy Policy | Disclaimer | Legal Notice
Copyright © 2001-2014 MetalTabs.com. All Rights Reserved.