top separator

Home

Forum

What's New

Submit a Tab

FAQ

Links

Contact Us

Link to Us

MuSpy.com

MetalTabs.com logo

Bands

0-9

A

B

C

D

E

F

G

H

I

J

K

L

M

N

O

P

Q

R

S

T

U

V

W

X

Y

Z

Search

What

Where
 

Tankard - "Rundown Quarter" Guitar Tab

Plain Text Version
More Tankard Tabs

Hits: 1993
Rated: 4.00 out of 5 (2 votes)
Updated: 2006-06-25 08:05:51

 

By:

Daniil

sendpm.gif

email.gif

Important note
This tab is available online because we obtained explicit permission from Tankard or their label.


#----------------------------------PLEASE NOTE---------------------------------#
#This file is the author's own work and represents their interpretation of the #
#song. You may only use this file for private study, scholarship, or research. #
#Unless specified otherwise, this is NOT an official tab from the band members.#
#------------------------------------------------------------------------------#

  Visit MetalTabs.com for more metal tablature
  
TANKARD-Rundown Quarter
B-Day-2002
Copyright AFM Records
Transcribed by Daniil Laletin
e-mail: dlaletin@mail.ru
version 1.0 March 2006

All corrections are welcome.

 " - tremolo
 / - slide down
 \ - slide up
 . - palm mute
 ~ - long sound
 x - rest
 p - pull off
 h - hammer on
 tr - trill
 () - ghost note, sustained note
 * - artificial harmonics
 b - bend

 Tuning from low to high: D# G# C# F# A# D#
===========================================

 Riff 1
|-------------------------------------|
|-------------------------------------|
|-------------------------------------|
|-------------------------------------|
|-7----7----5--------4-5-4-5-2--------|
|-5-55-5-55-3-333333-2-3-2-3-0-000000-|
    ..   ..   ......     . .   ......
|-------------------------------------|
|-------------------------------------|
|-------------------------------------|
|-------------------------------------|
|-7----7----5--------4-5-4-5-7~~~--\--|
|-5-55-5-55-3-333333-2-3-2-3-5~~~--\--|
    ..   ..   ...... . . . .

 Riff 2
|-----------------------------------|
|-----------------------------------|
|-----------------------------------|
|--------------55-7--7-5-2----------|
|-7-5-2--2-5-7-33-5--5-3-0--33-22---|
|-5-3-0--0-3-5--------------------3-|


 RIFF 3
|------------------------------------------------------|
|------------------------------------------------------|
|------------------------------------------------------|
|-2-5-7-7-5-4--2-5-4--------2-5-7-7-5-4--2-5-4---------|
|-0-3-5-5-3-2--0-3-2-----7--0-3-5-5-3-2--0-3-2-3-2-3b--|
|--------------------3-5-5---------------------.-.-----|
                     . .

 Riff 4
|-------------------------------------|
|-------------------------------------|
|-------------------------------------|
|-------------------5--------4--------|
|-7-----------------3-333333-2-222222-|
|-5-555555-3-555555---......---......-|
    ...... . ......

|------------------------------------------|
|------------------------------------------|
|----------------------------------5-7-5-4-|gtr2
|-------------------5----------5-7---------|
|-7-----------------3-333333-5-----3-5-3-2-|gtr1
|-5-555555-3-555555---......-3-3-5---------|
    ...... . ......

|---------------------------------|
|---------------------------------|
|---------------------------------|
|-------------------5-------------|
|-7-----------------3-333333-5~~--|
|-5-555555-3-555555---......-3~~--|
    ...... . ......


 Solo riff 1 = Riff 1

 Solo riff 2                       x2
|------------------------------------|
|------------------------------------|
|------------------------------------|
|-7--------5--------4----------------|
|-5-777777-3-333333-2-22222222222222-|
|---......---......---.............--|
                                   x1
|------------------------------------|
|------------------------------------|
|-7--------5--------4----------------|
|-5-777777-3-333333-2-22222222222222-|
|---......---......---..............-|
|------------------------------------|
                       x1
|------------------------|
|------------------------|
|------------------------|
|-7--------5--------4----|
|-5-777777-3-333333-2----|
|---......---......------|


 Ending chord
|---|
|---|
|---|Just
|---|thrash it
|-7-|madly
|-5-|

  Visit MetalTabs.com for more metal tablature

bottom separator

Contact Us | Privacy Policy | Disclaimer | Legal Notice
Copyright © 2001-2014 MetalTabs.com. All Rights Reserved.