top separator

Home

Forum

What's New

Submit a Tab

FAQ

Links

Contact Us

Link to Us

MetalTabs.com logo

Bands

0-9

A

B

C

D

E

F

G

H

I

J

K

L

M

N

O

P

Q

R

S

T

U

V

W

X

Y

Z

Search

What

Where
 

Onslaught (UK) - "Witch Hunt" Guitar Tab

Plain Text Version
More Onslaught (UK) Tabs

Hits: 2048
Updated: 2006-06-25 07:59:50

 

By:

Dahmers Fridge

sendpm.gif

email.gif

Important note
This tab is available online because we obtained explicit permission from Onslaught (UK) or their label.


#----------------------------------PLEASE NOTE---------------------------------#
#This file is the author's own work and represents their interpretation of the #
#song. You may only use this file for private study, scholarship, or research. #
#Unless specified otherwise, this is NOT an official tab from the band members.#
#------------------------------------------------------------------------------#

  Visit MetalTabs.com for more metal tablature
  
Band:  Onslaught
Album: Power From Hell
Song:  Witch Hunt
Copyright (c)  (Under One Flag) (1987)
Version 1.0 - (23/04/06)

Transcribed By: Steve
Email:          stephen.elvidge1@ntlworld.com


.  - palm mute           /  - slide up to
\  - slide down to       ~  - vibrato
h  - hammer on           b  - Bend
p  - pull off            Suffixes for bend
t  - tap                 f  - full bend    h - half bend
ph - pinched harmonic    q  - quarter bend t - tap bend
*  - see comment         ^  - Hold bend    r release bend
x  - Stuccatto           ~  - vibrato bend
,  - slight palm mute    () - ghost note, sustained note
"  - tremolo note        <> - harmonic

Tunning E A D G B E

 Intro


E------------------------------------------------------------|
B------------------------------------------------------------|
G------------------------------------------------------------|
D------------------------------------------------------------|
A-2-2-2-2-2-2-2-2-2-2-2-2-2-2-2-2-2-2-2-2-2-2-2-2-2-2-2-2--2-|
E-0-0-0-0-0-0-0-0-0-0-0-0-0-0-0-0-0-0-0-0-0-0-0-0-0-0-0-0--0-|


  Guitar 1
E[--------------------------------------------------|
B[--------------------------------------------------|
G[--------------------------------------------------|
D[--------------------------------------------------|
A[-2--------------------(0)-------------------------|
E[-0--------------------(0)-------------------------|
 [Guitar 2
E[--------------------------------------------------|
B[--------------------------------------------------|
G[--------------------------------------------------|
D[--------------------------------------------------|
A[-2------------------------------------------------|
E[-0-----------------0-0-3p0-6-0-3p0-0-0-3p0-6-0-3p-|


  Guitar 1
E[------------------------------------------------------------|
B[------------------------------------------------------------|
G[------------------------------------------------------------|
D[-9-9---------------------------9-9--------------------------|
A[-7-7---------------------------7-7--------------------------|
E[------------------------------------------------------------|
 [Guitar 2
E[------------------------------------------------------------|
B[------------------------------------------------------------|
G[------------------------------------------------------------|
D[------------------------------------------------------------|
A[------------------------------------------------------------|
E[-0-0-3p0-6p0-3p0-0-3p0-6p0-3p0-0-0-3p0-6p0-3p0-0-3p0-6p0-3p-|


  Guitar 1
E[------------------------------|
B[------------------------------|
G[------------------------------|
D[-9-9--------------------------|
A[-7-7--------------------------|
E[------------------------------|
 [Guitar 2
E[------------------------------|
B[------------------------------|
G[------------------------------|
D[------------------------------|
A[------------------------------|
E[-0-0-3p0-6p0-3p0-0-3p0-6p0-3p-|


  Guitar 1
E[------------------------------------------------------------------|
B[------------------------------------------------------------------|
G[------------------------------------------------------------------|
D[-9-------9-------9-------5-5-5\4-9-------9-------9-------5-\4-\3--|
A[-7-77777-7-77777-7-77777-3-3-3\2-7-77777-7-77777-7-77777-3-\2-\1--|
E[-0-00000-0-00000-0-00000---------0-00000-0-00000-0-00000----------|
 [Guitar 1
E[------------------------------------------------------------------|
B[------------------------------------------------------------------|
G[------------------------------------------------------------------|
D[---------------------------------------------------------5-\4-\3--|
A[-2-------------------------(2)---------------------------3-\2-\1--|
E[-0-------------------------(0)------------------------------------|

 Main Riff

E------------------------------------------------------------------|
B------------------------------------------------------------------|
G------------------------------------------------------------------|
D-9-------9-------9-------5-5-5\4-9-------9-------9-------5-\4-\3--|
A-7-77777-7-77777-7-77777-3-3-3\2-7-77777-7-77777-7-77777-3-\2-\1--|
E-0-00000-0-00000-0-00000---------0-00000-0-00000-0-00000----------|
                                                        Rpt 4 X

 Chorus

E------------------------------------------------|
B------------------------------------------------|
G------------------------------------------------|
D-2---(0)---2------------------------------------|
A-0---(0)---0-5---(0)---5\3---(0)---3\2----3/5---|
E-------------3---(0)---3\1---(0)---1\0----1/3---| Rpt

     [-PM-]           [-PM-]           [-PM-]
E----------------------------------------------------|
B----------------------------------------------------|
G----------------------------------------------------|
D-2-2------2---2-2------------------2-2------2---2-2-|
A-0-0-0000-0-x-0-0-5-5------5---5-5-0-0-0000-0-x-0-0-|
E------------------3-3-3333-3-x-3-3------------------|

E---------------|
B---------------|
G---------------|
D--------5-4-3--|
A-5--5---3-2-1--|
E-3--3----------|

 Guitar solo

    h   h   h   h   h                h    h    h     ~~~~~~~~~~~~~
E-------------------------------------------------------------------|
B---------------------------------8-10p8-10p8-10p8-10fb-------------|
G-------------------------------9-----------------------------------|
D-5-7p5-7p5-7p5-7p5-7p5-7/10-12-------------------------------------|
A-------------------------------------------------------------------|
E-------------------------------------------------------------------|

                      h    ~~~               h     h     h     h
E-12-15-12-------------------------10-12p10-12p10-12p10-12p10-12p10-|
B----------15---10-8-10p8-10br10p8----------------------------------|
G-------------------------------------------------------------------|
D-------------------------------------------------------------------|
A-------------------------------------------------------------------|
E-------------------------------------------------------------------|

      h     h      ~~~~~~~~~~~~~~~~~~~~~~~
E-p10-12p10-12p10-12fb---------------------|
B------------------------------------------|
G------------------------------------------|
D------------------------------------------|
A------------------------------------------|
E------------------------------------------|

 Backing for solo is Main Riff 2 X

 Rpt Main Riff 2 X
 Rpt Verse
 Rpt Chorus

      ~~~    ~~~    ~~
E------------------------------|
B------------------------------|
G------------------------------|
D------------------------------|
A-2-2----2-2----2-2------3\2\1-|
E-0-0-3--0-0-6--0-0-3-p0-------| Rpt 4 X

 Rpt Main Riff 2 X
 Rpt Verse
 Rpt Chorus

 Guitar solo
                                            ~~~~~~~~~~~~~~~~~~~
E--------------------------------------------------------------|
B-8p7--------8p7--------8p7---------8p7------------------------|
G------7p6--------7p6-------7p6---------7----------------------|
D----------9----------9---------9-9-------9-8--trem vibrato----|
A--------------------------------------------------------------|
E--------------------------------------------------------------|

                     ~~~~~~~~~~~~~~~~~~~~~~~~~~~~~~~~~~~~~~
E-------------------15fb--------------------------------------|
B-----------------------------------10b-------------10fb---r--|
G-0-pull up on trem-------------------------------------------|
D-------------------------------------------------------------|
A-------------------------------------------------------------|
E-------------------------------------------------------------|

      h                                   h   h    h    h     ~~~~~~
E-12-15p12\---------------------------------------------------------|
B-----------10-8-----------------------8-10p8-10p8-10p8-10p8-10fb---|
G----------------9-7-9-----------7-8-9------------------------------|
D-----------------------9\-7-8-9------------------------------------|
A-------------------------------------------------------------------|
E-------------------------------------------------------------------|

 Backing for solo is Main Riff 2 X

 Rpt Main Riff 2 X
 Rpt Verse
 Rpt Chorus




E------------------------------------------------------------------|
B------------------------------------------------------------------|
G------------------------------------------------------------------|
D-2-2-2-2-2-2-2-2-2-2-2-2-2-2-2-2-2-2-2-2-2-2-2-2-2-2-2-2-2-2-2-2--|
A-0-0-0-0-0-0-0-0-0-0-0-0-0-0-0-0-0-0-0-0-0-0-0-0-0-0-0-0-0-0-0-0--|
E------------------------------------------------------------------|

E------------------------------------------------------------|
B------------------------------------------------------------|
G------------------------------------------------------------|
D-----------------------------9-9-9-9-9-9-9-9-9-9-9-9-9-9--9-|
A-2-2-2-2-2-2-2-2-2-2-2-2-2-2-7-7-7-7-7-7-7-7-7-7-7-7-7-7--7-|
E-0-0-0-0-0-0-0-0-0-0-0-0-0-0-0-0-0-0-0-0-0-0-0-0-0-0-0-0--0-|



E----------------|
B----------------|
G----------------|
D---(9)---9--9---|
A---(7)---7--7---|
E---(0)---0--0---|


END

  Visit MetalTabs.com for more metal tablature

bottom separator

Contact Us | Privacy Policy | Disclaimer | Legal Notice
Copyright © 2001-2014 MetalTabs.com. All Rights Reserved.