top separator

Home

Forum

What's New

Submit a Tab

FAQ

Links

Contact Us

Link to Us

MuSpy.com

MetalTabs.com logo

Bands

0-9

A

B

C

D

E

F

G

H

I

J

K

L

M

N

O

P

Q

R

S

T

U

V

W

X

Y

Z

Search

What

Where
 

Onslaught (UK) - "Skullcrusher I" Guitar Tab

Plain Text Version
More Onslaught (UK) Tabs

Hits: 2113
Updated: 2006-06-25 07:59:42

 

By:

Dahmers Fridge

sendpm.gif

email.gif

Important note
This tab is available online because we obtained explicit permission from Onslaught (UK) or their label.


#----------------------------------PLEASE NOTE---------------------------------#
#This file is the author's own work and represents their interpretation of the #
#song. You may only use this file for private study, scholarship, or research. #
#Unless specified otherwise, this is NOT an official tab from the band members.#
#------------------------------------------------------------------------------#

  Visit MetalTabs.com for more metal tablature
  
Band:  Onslaught
Album: Power From Hell
Song:  Skull Crusher Pt 1

Copyright (c)  (Under One Flag) (1987)
Version 1.0 - (24/04/06)

Transcribed By: Steve
Email:          stephen.elvidge1@ntlworld.com


.  - palm mute           /  - slide up to
\  - slide down to       ~  - vibrato
h  - hammer on           b  - Bend
p  - pull off            Suffixes for bend
t  - tap                 f  - full bend    h - half bend
ph - pinched harmonic    q  - quarter bend t - tap bend
*  - see comment         ^  - Hold bend    r release bend
x  - Stuccatto           ~  - vibrato bend
,  - slight palm mute    () - ghost note, sustained note
"  - tremolo note        <> - harmonic

Tunning E A D G B E

 Acoustic guitar

 Let notes ring out

E---5---5---5---5---5---5----0---3/---|
B-----3-------3-------3--------3------|
G------------------------2p0----------|
D-0-------0-------3----------2--------|
A-------------------------------------|
E-------------------------------------| Rpt 7 X

 Distorted guitar

E-2-----------(2)--------------------------------------------------|
B-3-----------(3)--------------------------------------------------|
G-2-----------(2)--------------------------------------------------|
D-0-----------(0)--------------5--------------(5)------------------|
A------------------------------3--------------(3)------------------|
E------------------------------------------------------------------|

E-2-----------(2)--------------------------------------------------|
B-3-----------(3)--------------------------------------------------|
G-2-----------(2)--------------------------------------------------|
D-0-----------(0)--------------5--------------(5)------------------|
A------------------------------3--------------(3)-----------3-3-3/-|
E------------------------------------------------------------------|

E------------------------------------------------------------------|
B------------------------------------------------------------------|
G-7-----------(7)------------7\5--------------(5)------------------|
D-7-----------(7)------------7\5--------------(5)---------------5/-|
A-5-----------(5)------------5\3--------------(3)---------------3/-|
E------------------------------------------------------------------|


  Guitar 1
E[----------------------------------------------------|
B[----------------------------------------------------|
G[-7-----------------(7)------------------------------|
D[-7-----------------(7)------------------------------|
A[-5-----------------(5)------------------------------|
E[----------------------------------------------------|
 [Guitar 2
 [                           h   h           h   h
E[----------------------------------------------------|
B[----------------------------------------------------|
G[----------------------------------------------------|
D[-------------------0-2-3-2-3p2-3p2p0-2-3-2-3p2-3p2p-|
A[----------------------------------------------------|
E[----------------------------------------------------|

  Guitar 1
E[-------------------------------------------------------------------|
B[-------------------------------------------------------------------|
G[-7--------------(7)--------------7--------------(7)----------------|
D[-7--------------(7)--------------7--------------(7)----------------|
A[-5--------------(5)--------------5--------------(5)----------------|
E[-------------------------------------------------------------------|
 [Guitar 2
 [         h   h           h   h           h   h           h   h
E[-------------------------------------------------------------------|
B[-------------------------------------------------------------------|
G[-------------------------------------------------------------------|
D[-0-2-3-2-3p2-3p2p0-2-3-2-3p2-3p2p0-2-3-2-3p2-3p2p0-2-3-2-3p2-3p2p--|
A[-------------------------------------------------------------------|
E[-------------------------------------------------------------------|
 [Guitar 3
E[-------------------------------------------------------------------|
B[-------------------------------------------------------------------|
G[-------------------------------------------------------------------|
D[---------------------------------3--------------(3)----------------|
A[-------------------------------------------------------------------|
E[-------------------------------------------------------------------|


  Guitar 1
E[-------------------------------------------------------------------|
B[-------------------------------------------------------------------|
G[-7--------------(7)--------------7--------------(7)----------------|
D[-7--------------(7)--------------7--------------(7)----------------|
A[-5--------------(5)--------------5--------------(5)----------------|
E[-------------------------------------------------------------------|
 [Guitar 2
 [         h   h           h   h           h   h           h   h
E[-------------------------------------------------------------------|
B[-------------------------------------------------------------------|
G[-------------------------------------------------------------------|
D[-0-2-3-2-3p2-3p2p0-2-3-2-3p2-3p2p0-2-3-2-3p2-3p2p0-2-3-2-3p2-3p2p--|
A[-------------------------------------------------------------------|
E[-------------------------------------------------------------------|



                       h   h   h
E-----------------------------------|
B-3-3-3---3-3-3---------------------|
G-2-2-2---2-2-2---------------------|
D-0-0-0-0-0-0-0---------------------|
A---------------2-3-p2-3p2-3p2-3/5--|
E-----------------------------------| Rpt 3 X

  Guitar 1
                        h   h   h
E[-----------------------------------|
B[-3-3-3---3-3-3---------------------|
G[-2-2-2---2-2-2---------------------|
D[-0-0-0-0-0-0-0---------------------|
A[---------------2-3-p2-3p2-3p2-3/5--|
E[-----------------------------------|
 [Guitar 1
E[-----------------------------------|
B[-3-3-3---3-3-3---------------------|
G[-2-2-2---2-2-2---------------------|
D[-0-0-0-0-0-0-0---------------------|
A[---------------2-3-7\--slow slide--|
E[-------------------7\--------------|


        [PM]     [PM]
E-------------------------------|
B-------------------------------|
G-------------------------------|
D---------------------5-----8\7-|
A-5/7-7-777-5/7-7-777-3--5--6\5-|
E-3/5-5-555-3/5-5-555----3------| Rpt 4 X

E-------------------------------------------------------------------|
B-------------------------------------------------------------------|
G-------------------------------------------------------------------|
D-2------------(2)---------------2---------------(2)----------------|
A-0------------(0)---------------0---------------(0)----------------|
E-------------------------------------------------------------------|

                                                       Pick scrape
E-------------------------------------------------------------------|
B-------------------------------------------------------------------|
G-------------------------------------------------------------------|
D-2------------(2)---------------2---------------(2)----------\-\---|
A-0------------(0)---------------0---------------(0)-----------\-\--|
E-------------------------------------------------------------------|

        [PM]     [PM]
E-------------------------------|
B-------------------------------|
G-------------------------------|
D---------------------5-----8\7-|
A-5/7-7-777-5/7-7-777-3--5--6\5-|
E-3/5-5-555-3/5-5-555----3------| Rpt 4 X


E---------------------------------------------|
B---------------------------------------------|
G---------------------------------------------|
D-7---8---7--7---8---7--7---8---7--7---8---7--|
A-5-x-6-x-5--5-x-6-x-5--5-x-6-x-5--5-x-6-x-5--|
E---------------------------------------------|

E---------------------------------------------|
B---------------------------------------------|
G-7-----------------(7)-----------------------|
D-7-----------------(7)-----------------------|
A-5-----------------(5)-----------------------|
E---------------------------------------------|

              PM  PM
E-------------------------------------------|
B-------------------------------------------|
G-0-1-0-3-00------------0-1-0-3/5/6-5/6\5---|
D-0-1-0-3-00-3---3---2--0-1-0-3/5/6-5/6\5---|
A------------3---3---2----------------------|
E--------------0---0------------------------| Rpt 5 X

E--------------------------------|
B--------------------------------|
G--------------------------------|
D-2------------(2)---------------|
A-0------------(0)---------------|
E--------------------------------|


 [------------------------------PM---------------------------------]
E-------------------------------------------------------------------|
B-------------------------------------------------------------------|
G-------------------------------------------------------------------|
D-------------------------------------------------------------------|
A-------------------------------------------------------------------|
E-0-0-0-0-0-0-0-0-0-0-0-0-0-0-0-0-0-0-0-0-0-0-0-0-0-0-0-0-0-0-0-0-0-|


  Guitar 1
E[-------------------|
B[-------------------|
G[-------------------|
D[-9----9----9-------|
A[-7----7----7-------|
E[-0----0----0-------|
 [Guitar 2
 [[------PM-------]
E[-------------------|
B[-------------------|
G[-------------------|
D[-------------------|
A[-------------------|
E[-0-0-0-0-0-0-0-0---|


E--------------------------------------------------------|
B--------------------------------------------------------|
G--------------------------------------------------------|
D-----------/7-7--7--7-\5-5--5--5-\3-3--3--3--2-2--2--2--|
A-5-5--5--5-/5-5--5--5-\3-3--3--3-\1-1--1--1--0-0--0--0--|
E-3-3--3--3----------------------------------------------| Rpt 2 X

 Guitar solo

    h   h   h   h   h   h   h   h   h   h   h   h   h   h   h   h
E-------------------------------------------------------------------|
B-------------------------------------------------------------------|
G-3-5p3-5p3-5p3-5p3-5p3-5p3-5p3-5p3-5p3-5p3-5p3-5p3-5p3-5p3-5p3-5p3-|
D-------------------------------------------------------------------|
A-------------------------------------------------------------------|
E-------------------------------------------------------------------|

     ~~~~~~~    h     h           h     h     h      ~~~~~~~~~~~~~~~~~
E-----------/15-18p15-18p15-------------------------------------------|
B---13b-13b-----------------18-15----------------------------13b--13b-|
G-/-------------------------------17p15-17p15-17p15-17b---------------|
D---------------------------------------------------------------------|
A---------------------------------------------------------------------|
E---------------------------------------------------------------------|

     ~~~~~~~      h   h   h                ~~~     ~~~
E-------------------------------------6-8-8b-r8-6-8b-r8-6--|
B-\-------------------------------6-8----------------------|
G---7b--7b--\---------5p3-5p3-5/7--------------------------|
D-------------5p3-5p3--------------------------------------|
A----------------------------------------------------------|
E----------------------------------------------------------|

          ~~~~~~~~~~~~~  h   h   h   h   h   h   h
E----------------------------------------------------------------|
B----------------------------------------------------------------|
G-5p3-5p3-5--trem------0-2p0-2p0-2p0-2p0-2p0-2p0-2p0-0-trem dive-|
D----------------------------------------------------------------|
A----------------------------------------------------------------|
E----------------------------------------------------------------|

            h       ~~~~~~~    h     h     h     h     h
E---5---5------------------15-18p15-18p15-18p15-18p15-18p15--|
B-3---3------------------------------------------------------|
G---------3-5p3-5-5b-trem------------------------------------|
D------------------------------------------------------------|
A------------------------------------------------------------|
E------------------------------------------------------------|

   h     h     h     h     h     h     h     h     ~~~~~~~~~~~~~~~
E-18p15-18p15-18p15-18p15-18p15-18p15-18p15-18p15-18b-------------\-|
B-------------------------------------------------------------------|
G-------------------------------------------------------------------|
D-------------------------------------------------------------------|
A-------------------------------------------------------------------|
E-------------------------------------------------------------------|

       ~~~~~~~~~~~~~~~~~~~~~~~~~~~~~~~~~~~~              ~~~~
E----------------------------------------------------3-----------|
B-13-13fb---------13fb---------------------------3-6---6-8brp6---|
G----------------------------5b--5b------r-3-5b----------------7-|
D----------------------------------------------------------------|
A----------------------------------------------------------------|
E----------------------------------------------------------------|

           ~~~                 ~~~~~~~~       h    h     h     h
E-------------/18-15----------------------13-15p-13-15p-13-15p-13-15p-|
B-8-10-13-13b--------18-15--------------------------------------------|
G--------------------------17-17b--17bp15-----------------------------|
D---------------------------------------------------------------------|
A---------------------------------------------------------------------|
E---------------------------------------------------------------------|

     h       h                            h
E-13-15p-13-15p-13-15-13-15------------------------------|
B--------------------------------------------------------|
G---------------------------10\-5-7-3-5-3-5p3------------|
D---------------------------------------------3-5--------|
A--------------------------------------------------------|
E-------------------------------------------------6\-5\--|

   ~~~~~~    h          ~~~~~~~~~~~~~~     h    h     h     h      h
E------------------6-8------------------------------------------------|
B--------------6-8-----13b----b---b-----8-10p-8-10p-8-10p-8-10p-8-11p-|
G-5b-----5p3-5--------------------------------------------------------|
D---------------------------------------------------------------------|
A---------------------------------------------------------------------|
E---------------------------------------------------------------------|

     h    h     h     h      h   ~~~~~~~~~~~~~~~~~~~~~~~~~~~~~
E-------------------------------------------------------------|
B-8-10p-8-11p-8-10p-8-11p-8-10p-------------------------------|
G-------------------------------9b----------------------------|
D------------------------------------------3------------------|
A-------------------------------------------------------------|
E-------------------------------------------------------------|

E--------------------------------------------------------|
B--------------------------------------------------------|
G--------------------------------------------------------|
D-----------/7-7--7--7-\5-5--5--5-\3-3--3--3--2-2--2--2--|
A-5-5--5--5-/5-5--5--5-\3-3--3--3-\1-1--1--1--0-0--0--0--|
E-3-3--3--3----------------------------------------------| Rpt 2 X


                       h   h   h
E-----------------------------------|
B-3-3-3---3-3-3---------------------|
G-2-2-2---2-2-2---------------------|
D-0-0-0-0-0-0-0---------------------|
A---------------2-3-p2-3p2-3p2-3/5--|
E-----------------------------------| Rpt 4 X

        [PM]     [PM]
E-------------------------------|
B-------------------------------|
G-------------------------------|
D---------------------5-----8\7-|
A-5/7-7-777-5/7-7-777-3--5--6\5-|
E-3/5-5-555-3/5-5-555----3------| Rpt 4 X

E--------------------------------|
B--------------------------------|
G--------------------------------|
D-2------------(2)---------------|
A-0------------(0)---------------|
E--------------------------------| Rpt 3 X


E--------------------------------|
B--------------------------------|
G--------------------------------|
D-2------------(2)---------------|
A-0------------(0)----------x\---|
E---------------------------x\---|

        [PM]     [PM]
E-------------------------------|
B-------------------------------|
G-------------------------------|
D---------------------5-----8\7-|
A-5/7-7-777-5/7-7-777-3--5--6\5-|
E-3/5-5-555-3/5-5-555----3------| Rpt 4 X


E---------------------------------------------|
B---------------------------------------------|
G---------------------------------------------|
D-7---8---7--7---8---7--7---8---7--7---8---7--|
A-5-x-6-x-5--5-x-6-x-5--5-x-6-x-5--5-x-6-x-5--|
E---------------------------------------------|


E---------------------------------------------|
B---------------------------------------------|
G-7-----------------(7)-----------------------|
D-7-----------------(7)-----------------------|
A-5-----------------(5)-----------------------|
E---------------------------------------------|




  Guitar 1
     h     h   h    h    h    h
E[----------------------------------|
B[----------------------------------|
G[-0-2---0-2------------------------|
D[-----x-----0-2p-0-2p-0-2p-0-2p----|
A[-------------------------------2--|
E[-------------------------------0--|
 [Guitar 2
 [             Depress trem,pull up
E[----------------------------------|
B[----------------------------------|
G[----------------------------------|
D[----------------------------------|
A[------------------------2/-----2--|
E[------------------------0/-----0--|



END

  Visit MetalTabs.com for more metal tablature

bottom separator

Contact Us | Privacy Policy | Disclaimer | Legal Notice
Copyright © 2001-2014 MetalTabs.com. All Rights Reserved.