top separator

Home

Forum

What's New

Submit a Tab

FAQ

Links

Contact Us

Link to Us

MetalTabs.com logo

Bands

0-9

A

B

C

D

E

F

G

H

I

J

K

L

M

N

O

P

Q

R

S

T

U

V

W

X

Y

Z

Search

What

Where
 

Wehrmacht - "Night of Pain, Pt. 1" Guitar Tab

Plain Text Version
More Wehrmacht Tabs

Hits: 3384
Rated: 3.50 out of 5 (4 votes)
Updated: 2006-06-25 07:58:30

 

By:

MetalThrashingMad

sendpm.gif

email.gif

Important note
This tab is available online because we obtained explicit permission from Wehrmacht or their label.


#----------------------------------PLEASE NOTE---------------------------------#
#This file is the author's own work and represents their interpretation of the #
#song. You may only use this file for private study, scholarship, or research. #
#Unless specified otherwise, this is NOT an official tab from the band members.#
#------------------------------------------------------------------------------#

  Visit MetalTabs.com for more metal tablature
  
Night of Pain (Part I)
                                 By Wehrmacht
                       From the 1989 Album Biermacht

                                           _______________________
Transcribed by:                           | KEY:                  |
                Steve Rubaszek            |                       |
                                          | _ = Palm mute         |
Email:                                    |                       |
                Thrasher502@hotmail.com   | \ = slide             |
                                          |                       |
Version: 1.0 - April 19, 2006             | x = scrape            |
                                          |                       |
                                          | ph - pinched harmonic |
Arranged by Wehrmacht                     |                       |
                                          | tp - tremelo picking  |
                                          |_______________________|

TUNING: I'm guessing it was supposed to be E standard, but it is
in between E and Eb (like Dark Angel, grr) I tuned my guitar to
make the low E sound the same, then I adjusted my chromatic tuner
to say that this note was correct. I lowered to Hz guage thing
from 442 Hz (which is correct on mine) to 427 Hz. So if anyone has
a chromatic tuner out there, this is the correct pitch for this
song.


Riff 1a x4
|---------------------------------|
|---------------------------------|
|-7-0-0-8-0-0-7-0-0-8-0-0-7-0-8-0-|
|---------------------------------|
|---------------------------------|
|---------------------------------|
   _____ _____ _____ _____ ___ __


Riff 1b x2 (one guitar pick slides at end of repeat)
|---------------------------------|---------------------------------|
|---------------------------------|---------------------------------|
|-7-0-0-8-0-0-7-0-0-8-0-0-7-0-8-0-|-7-0-0-8-0-0-7-0-0-8-0-0-7-0-8-0-|
|---------------------------------|---------------------------------|
|---------------------------------|---------------------------------|
|---------------------------------|---------------------------------|
|  _____ _____ _____ _____ ___ __    _____ _____ _____ _____ ___ __ |
|                                                                   |
|---------------------------------|---------------------------------|
|---------------------------------|---------------------------------|
|---------------------------------|-3-------------------------------|
|-5-------------------------------|-3-------------------------------|
|-5-------------------------------|-1-------------------------------|
|-3-------------------------------|---------------------------------|


|---------------------------------|---------------------------------|
|---------------------------------|---------------------------------|
|-7-0-0-8-0-0-7-0-0-8-0-0-7-0-8-0-|-7-0-0-8-0-0-7-0-0-8-0-0-7-0-8-0-|
|---------------------------------|---------------------------------|
|---------------------------------|---------------------------------|
|---------------------------------|---------------------------------|
|  _____ _____ _____ _____ ___ __    _____ _____ _____ _____ ___ __ |
|                                                                   |
|---------------------------------|---------------------------------|
|---------------------------------|---------------------------------|
|-4-------------------------------|-(4)-----------------------------|
|-4-------------------------------|-(4)-----------------------------|
|-2-------------------------------|-(2)-----------------------------|
|---------------------------------|---------------------------------|


Riff 1c x2
|---------------------------------|---------------------------------|
|-7-0-0-8-0-0-7-0-7-0-0-8-0-0-7-0-|-7-0-0-8-0-0-7-0-0-8-0-0-7-0-8-0-|
|---------------------------------|---------------------------------|
|---------------------------------|---------------------------------|
|---------------------------------|---------------------------------|
|---------------------------------|---------------------------------|
|  _____ _____ _____ _____ ___ __    _____ _____ _____ _____ ___ __ |
|                                                                   |
|---------------------------------|---------------------------------|
|---------------------------------|---------------------------------|
|-----------------3---------------|-4-------------------------------|
|-5---------------3---------------|-4-------------------------------|
|-5---------------1---------------|-2-------------------------------|
|-3-------------------------------|---------------------------------|



Riff 1d x2  (tremelo pick second time at end)
|-7-0-0-8-0-0-7-0-7-0-0-8-0-0-7-0-|-7-0-0-8-0-0-7-0-0-8-0-0-7-0-8-0-|
|---------------------------------|---------------------------------|
|---------------------------------|---------------------------------|
|---------------------------------|---------------------------------|
|---------------------------------|---------------------------------|
|---------------------------------|---------------------------------|
|  _____ _____ _____ _____ ___ __    _____ _____ _____ _____ ___ __ |
|                                                                   |
|---------------------------------|---------------------------------|
|---------------------------------|---------------------------------|
|-----------------3---------------|-4-------------------------------|
|-5---------------3---------------|-4-------------------------------|
|-5---------------1---------------|-2-------------------------------|
|-3-------------------------------|---------------------------------|


Fig 1
|-7---------------|-7----|
|-----------------|------|
|-tp--------------|-tp---|
|-----------------|------|
|-----------------|------|
|-----------------|------|
|                        |
|-tp------tp------|--tp--|
|-----------------|------|
|-----------------|------|
|---------3-------|--4---|
|-5-------1-------|--2---|
|-3---------------|------|


Lead fill
|--17--19----17----19--22--19--22--19--22--19----22---|
|-----------------------------------------------------|
|-^__________________tp____________________________^--|
|-----------------------------------------------------|
|-----------------------------------------------------|
|-----------------------------------------------------|
|                                                     |
|-----------------------------------------------------|
|--tp-----------tp---------------tp------------tp-----|
|-----------------------------------------------------|
|---------------3----------------4-------------4------|
|--5------------1----------------2-------------2------|
|--3--------------------------------------------------|


Riff 2 x4
|--------|--------|-------|--------|
|--tp----|- tp----|--tp---|--tp----|
|--------|--------|-------|--------|
|--------|--3-----|--4----|--4-----|
|--5-----|--1-----|--2----|--2-----|
|--3-----|--------|-------|--------|


Riff 3 x6
|-----------|---------|
|-----------|---------|
|-----------|---------|
|-----------|---------|
|-9---12-11-|-8---5-8-|
|-7---10-9--|-6---3-6-|


Riff 4 x4                                   Fill
|-------|-------|-------|-------------|    |-------------------|
|-tp----|-tp----|-tp----|-------------|    |-------------------|
|-------|-------|-------|-------------|    |-------------------|
|-6-----|-------|-------|-------------|    |-------------------|
|-4-----|-5-----|-4-----|-4--4--x--2--|    |--2h3p2p0----------|
|-------|-3-----|-2-----|-------------|    |-----------3p2p3p2-|

                                             -
Riff 5a x4               Riff 5b x4           |
|------------------|    |----------------|    |
|------------------|    |----------------|    |
|------------------|    |----------------|    | Play
|---------------3--|    |-------------7--|    |   twice
|-----------2---1--|    |-------------5--|    |
|-0-0-0-0---0------|    |-4-4-4-4---5----|    |
  _______                 _______             |
                                             -

Riff 2 x4
|--------|--------|-------|--------|
|--tp----|- tp----|--tp---|--tp----|
|--------|--------|-------|--------|
|--------|--3-----|--4----|--4-----|
|--5-----|--1-----|--2----|--2-----|
|--3-----|--------|-------|--------|


Riff 3 x6 (under solo)
|-----------|---------|
|-----------|---------|
|-----------|---------|
|-----------|---------|
|-9---12-11-|-8---5-8-|
|-7---10-9--|-6---3-6-|


Riff 4 x4 (Also under solo)
|-------|-------|-------|-------------|
|-tp----|-tp----|-tp----|-------------|
|-------|-------|-------|-------------|
|-6-----|-------|-------|-------------|
|-4-----|-5-----|-4-----|-4--4--x--2--|
|-------|-3-----|-2-----|-------------|


Riff 2 x4
|--------|--------|-------|--------|
|--tp----|- tp----|--tp---|--tp----|
|--------|--------|-------|--------|
|--------|--3-----|--4----|--4-----|
|--5-----|--1-----|--2----|--2-----|
|--3-----|--------|-------|--------|

                                             -
Riff 5a x4               Riff 5b x4           |
|------------------|    |----------------|    |
|------------------|    |----------------|    |
|------------------|    |----------------|    | Play
|---------------3--|    |-------------7--|    |   twice
|-----------2---1--|    |-------------5--|    |
|-0-0-0-0---0------|    |-4-4-4-4---5----|    |
  _______                 _______             |
                                             -

Riff 2 x16                                End with E5, hit a few times
|--------|--------|-------|--------|     |----------------|
|--tp----|- tp----|--tp---|--tp----|     |----------------|
|--------|--------|-------|--------|     |----------------|
|--------|--3-----|--4----|--4-----|     |-2--------------|
|--5-----|--1-----|--2----|--2-----|     |-2--------------|
|--3-----|--------|-------|--------|     |-0--------------|

END

  Visit MetalTabs.com for more metal tablature

bottom separator

Contact Us | Privacy Policy | Disclaimer | Legal Notice
Copyright © 2001-2014 MetalTabs.com. All Rights Reserved.