top separator

Home

Forum

What's New

Submit a Tab

FAQ

Links

Contact Us

Link to Us

MuSpy.com

MetalTabs.com logo

Bands

0-9

A

B

C

D

E

F

G

H

I

J

K

L

M

N

O

P

Q

R

S

T

U

V

W

X

Y

Z

Search

What

Where
 

Bloodcum (US) - "Happilly Married" Guitar Tab

Plain Text Version
More Bloodcum (US) Tabs

Hits: 2767
Updated: 2006-06-25 07:57:40

 

By:

MetalThrashingMad

sendpm.gif

email.gif

Important note
This tab is available online because we obtained explicit permission from Bloodcum (US) or their label.


#----------------------------------PLEASE NOTE---------------------------------#
#This file is the author's own work and represents their interpretation of the #
#song. You may only use this file for private study, scholarship, or research. #
#Unless specified otherwise, this is NOT an official tab from the band members.#
#------------------------------------------------------------------------------#

  Visit MetalTabs.com for more metal tablature
  
Happily Married
                                By Bloodcum(US)
                   From the 1988 Album Death by a Clothes Hanger

                                           _______________________
Transcribed by:                           | KEY:                  |
                Steve Rubaszek            |                       |
                                          | _ = Palm mute         |
Email:                                    |                       |
                Thrasher502@hotmail.com   |   = slide             |
                                          |                       |
Version:                                  | x = scrape            |
                1.0 - April 18, 2006      |                       |
                                          | ph - pinched harmonic |
Arranged by Bloodcum(US)                  |_______________________|


Tuning - Eb Ab Db Gb Bb Eb


Riff 1a x4                                 Fill
|-------------------|------------------|   |----|------|------|------|
|-------------------|------------------|   |----|------|------|------|
|-------------------|------------------|   |----|------|------|------|
|-------2--------3--|-------2--------1-|   |-1--|-(1)--|-(1)--|-(1)--|
|---2-1------2-1----|---2-1------2-1---|   |-1--|-(1)--|-(1)--|-(1)--|
|-4--------4--------|-4--------4-------|   |----|------|------|------|
  _____    _____      _____    _____


Riff 1a x4
|-------------------|------------------|
|-------------------|------------------|
|-------------------|------------------|
|-------2--------3--|-------2--------1-|
|---2-1------2-1----|---2-1------2-1---|
|-4--------4--------|-4--------4-------|
  _____    _____      _____    _____


Riff 1b x4
|-------------------|------------------|-------------------|------------------|
|-------------------|------------------|-------------------|------------------|
|-------------------|------------------|-------------------|------------------|
|-------2--------3--|-------2--------1-|-------2--------3--|-------2--------1-|
|---2-1------2-1----|---2-1------2-1---|---2-1------2-1----|---2-1------2-1---|
|-4--------4--------|-4--------4-------|-4--------4--------|-4--------4-------|
| _____    _____      _____    _____     _____    _____      _____    _____   |
|                                                                             |
|-------------------|------------------|-------------------|------------------|
|-------------------|------------------|-------------------|------------------|
|-------------------|------------------|-------------------|------------------|
|-1-----------------|-(1)--------------|-2-----------------|-(2)--------------|
|-1-----------------|-(1)--------------|-2-----------------|-(2)--------------|
|-------------------|------------------|-------------------|------------------|


Fill
|-------------------|------------------|
|-------------------|------------------|
|-------------------|------------------|
|-1-----------------|-(1)--------------|
|-1-----------------|-(1)--------------|
|-------------------|------------------|


Riff 2 x6 (timing changes when drums enter)
|----------------|------------|
|----------------|------------|
|----------------|------------|
|-----------4\3--|------------|
|------4-5--2\1--|--------1-2-|
|-000--2-3-------|-00000------|
  ________         _____



Riff(s) 3 x2
|---------------------|----------------|---------------------|----------------|
|---------------------|----------------|---------------------|----------------|
|---------------------|----------------|---------------------|----------------|
|-----------4---------|-5-4------3--4--|-----------4---------|-5-4------3--4--|
|---------------------|----------------|---------------------|----------------|
|-2222-2222---22-2222-|-----2222-------|-2222-2222---22-2222-|-----2222-------|
| _________   _______       ____         _________   _______       ____       |
|                                                                             |
|---------------------|----------------|---------------------|----------------|
|---------------------|----------------|---------------------|----------------|
|---------------------|----------------|---------------------|----------------|
|-tp------------------|-tp-------------|-tp------------------|-tp-------------|
|---------------------|----------------|---------------------|----------------|
|-2-------------------|-2--------------|-2-------------------|-2--------------|
  _                     _                _                     _


|---------------------|----------------|---------------------|----------------|
|---------------------|----------------|---------------------|----------------|
|---------------------|----------------|---------------------|----------------|
|-----------4---------|-5-4------3--4--|-----------4---------|-5-4------3--4--|
|---------------------|----------------|---------------------|----------------|
|-2222-2222---22-2222-|-----2222-------|-2222-2222---22-2222-|-----2222-------|
| _________   _______       ____         _________   _______       ____       |
|                                                                             |
|---------------------|----------------|---------------------|----------------|
|---------------------|----------------|---------------------|----------------|
|---------------------|----------------|---------------------|----------------|
|-tp------------------|-tp-------------|-tp------------------|-tp------tp--tp-|
|---------------------|----------------|---------------------|----------------|
|-3-------------------|-3--------------|-5-------------------|-7-------9---7--|
  _                     _                _                     _       _   _


Riff 2 x8
|----------------|------------|
|----------------|------------|
|----------------|------------|
|-----------4\3--|------------|
|------4-5--2\1--|--------1-2-|
|-000--2-3-------|-00000------|
  ________         _____



Riff(s) 3 x2
|---------------------|----------------|---------------------|----------------|
|---------------------|----------------|---------------------|----------------|
|---------------------|----------------|---------------------|----------------|
|-----------4---------|-5-4------3--4--|-----------4---------|-5-4------3--4--|
|---------------------|----------------|---------------------|----------------|
|-2222-2222---22-2222-|-----2222-------|-2222-2222---22-2222-|-----2222-------|
| _________   _______       ____         _________   _______       ____       |
|                                                                             |
|---------------------|----------------|---------------------|----------------|
|---------------------|----------------|---------------------|----------------|
|---------------------|----------------|---------------------|----------------|
|-tp------------------|-tp-------------|-tp------------------|-tp-------------|
|---------------------|----------------|---------------------|----------------|
|-2-------------------|-2--------------|-2-------------------|-2--------------|
  _                     _                _                     _


|---------------------|----------------|---------------------|----------------|
|---------------------|----------------|---------------------|----------------|
|---------------------|----------------|---------------------|----------------|
|-----------4---------|-5-4------3--4--|-----------4---------|-5-4------3--4--|
|---------------------|----------------|---------------------|----------------|
|-2222-2222---22-2222-|-----2222-------|-2222-2222---22-2222-|-----2222-------|
| _________   _______       ____         _________   _______       ____       |
|                                                                             |
|---------------------|----------------|---------------------|----------------|
|---------------------|----------------|---------------------|----------------|
|---------------------|----------------|---------------------|----------------|
|-tp------------------|-tp-------------|-tp------------------|-tp------tp--tp-|
|---------------------|----------------|---------------------|----------------|
|-3-------------------|-3--------------|-5-------------------|-7-------9---7--|
  _                     _                _                     _       _   _


Riff 2 x8
|----------------|------------|
|----------------|------------|
|----------------|------------|
|-----------4\3--|------------|
|------4-5--2\1--|--------1-2-|
|-000--2-3-------|-00000------|
  ________         _____



~~~No solo rhythm~~~



Riff 1a x4
|-------------------|------------------|
|-------------------|------------------|
|-------------------|------------------|
|-------2--------3--|-------2--------1-|
|---2-1------2-1----|---2-1------2-1---|
|-4--------4--------|-4--------4-------|
  _____    _____      _____    _____


Fill
|-------------------|------------------|
|-------------------|------------------|
|-------------------|------------------|
|-1-----------------|-(1)--------------|
|-1-----------------|-(1)--------------|
|-------------------|------------------|


Outro x4
|------|------|------|------|    |-------|
|------|------|------|------|    |-------|
|-tp---|-tp---|-tp---|-tp---|    |-------|
|------|------|------|------|    |-------|
|------|------|------|------|    |--5-\--|
|-3----|-2----|-1----|-1----|    |--3-\--|
  ______________________

END

  Visit MetalTabs.com for more metal tablature

bottom separator

Contact Us | Privacy Policy | Disclaimer | Legal Notice
Copyright © 2001-2014 MetalTabs.com. All Rights Reserved.