top separator

Home

Forum

What's New

Submit a Tab

FAQ

Links

Contact Us

Link to Us

MuSpy.com

MetalTabs.com logo

Bands

0-9

A

B

C

D

E

F

G

H

I

J

K

L

M

N

O

P

Q

R

S

T

U

V

W

X

Y

Z

Search

What

Where
 

Wehrmacht - "Drink Beer Be Free" Guitar Tab

Plain Text Version
More Wehrmacht Tabs

Hits: 3695
Updated: 2006-06-25 07:57:05

 

By:

MetalThrashingMad

sendpm.gif

email.gif

Important note
This tab is available online because we obtained explicit permission from Wehrmacht or their label.


#----------------------------------PLEASE NOTE---------------------------------#
#This file is the author's own work and represents their interpretation of the #
#song. You may only use this file for private study, scholarship, or research. #
#Unless specified otherwise, this is NOT an official tab from the band members.#
#------------------------------------------------------------------------------#

  Visit MetalTabs.com for more metal tablature
  
The Beer is Here / Drink Beer, Be Free
                                 By Wehrmacht
                       From the 1989 Album Biermacht

                                           _______________________
Transcribed by:                           | KEY:                  |
                Steve Rubaszek            |                       |
                                          | _ = Palm mute         |
Email:                                    |                       |
                Thrasher502@hotmail.com   | \ = slide             |
                                          |                       |
Version: 1.0 - April 15, 2006             | x = scrape            |
                                          |                       |
                                          | ph - pinched harmonic |
Arranged by Wehrmacht                     |                       |
                                          | tp - tremelo picking  |
                                          |_______________________|

TUNING: I'm guessing it was supposed to be E standard, but it is
in between E and Eb (like Dark Angel, grr) I tuned my guitar to
make the low E sound the same, then I adjusted my chromatic tuner
to say that this note was correct. I lowered to Hz guage thing
from 442 Hz (which is correct on mine) to 427 Hz. So if anyone has
a chromatic tuner out there, this is the correct pitch for this
song.


(screaming)
Oh my god!
(screaming)
Hold up, hold up,
OK Sam just walked in
with two cases of Lucky Lager
first of all,
we have to get a Lucky Lager chant,
on the count of three
or we're gonna keep on yelling,
GO!

Lucky Lager! Lucky Lager! Lucky Lager!


Intro
|------|------|------|------|---------------------|
|------|------|------|------|---------------------|
|------|------|------|------|---------------------| tremelo for next
|-2----|-2----|-2----|-2----|---------------------|  eleven bars --->
|-2----|-2----|-2----|-2----|---------------------|
|-0----|-0----|-0----|-0----|-0000-0000-0000-0000-|
                              ___________________


Riff 1 x2 (second guitar pick scrapes second time)
|------------------|-------------|------------------|------------|
|------------------|-------------|------------------|------------|
|------------------|------7------|------------------|-6---7---6--|
|-9----------------|--7---5---7--|-9----------------|-7---7---7--|
|-7----------------|--5-------5--|-7----------------|------------|
|---0000-0000-0000-|-------------|---0000-0000-0000-|------------|
|   ______________                   ______________              |
|                                                                |
|------------------|-------------|------------------|------------|
|------------------|-------------|------------------|------------|
|------------------|------7------|------------------|-6---7---6--|
|-9----------------|--7---5---7--|-9----------------|-7---7---7--|
|-7----------------|--5-------5--|-7----------------|------------|
|------------------|-------------|------------------|------------|


Riff 1a x2 (both guitars)
|------------------|-------------|------------------|------------|
|------------------|-------------|------------------|------------|
|------------------|------7------|------------------|-6---7---6--|
|-9----------------|--7---5---7--|-9----------------|-7---7---7--|
|-7----------------|--5-------5--|-7----------------|------------|
|---0000-0000-0000-|-------------|---0000-0000-0000-|------------|
    ______________                   ______________


fig 1a
  tp      tp     tp     tp     tp     tp
|------|------|------|------|------|------|------------|
|------|------|------|------|------|------|------------|
|------|------|------|------|------|------|------------|
|--3---|------|--3---|--2---|--3---|------|--2223------|
|------|--5---|------|------|------|--5---|------------|
|------|------|------|------|------|------|------------|
   _      _      _      _      _      _      ____


Riff 1a x2
|------------------|-------------|------------------|------------|
|------------------|-------------|------------------|------------|
|------------------|------7------|------------------|-6---7---6--|
|-9----------------|--7---5---7--|-9----------------|-7---7---7--|
|-7----------------|--5-------5--|-7----------------|------------|
|---0000-0000-0000-|-------------|---0000-0000-0000-|------------|
    ______________                   ______________


fig 1b (a little different sounding at the end)
  tp      tp     tp     tp     tp     tp
|------|------|------|------|------|------|------------|
|------|------|------|------|------|------|------------|
|------|------|------|------|------|------|------------|
|--3---|------|--3---|--2---|--3---|------|--2223\-----|
|------|--5---|------|------|------|--5---|------------|
|------|------|------|------|------|------|------------|
   _      _      _      _      _      _      ___


Fig 2a x2
|-----------------------|--------------------------|
|-----------------------|--------------------------|
|---------------10--10--|----------12--11-11-11-11-|
|-9--999999999--10--10--|-9--9999--12--11-11-11-11-|
|-9--999999999--8---8---|-9--9999--10--9--9--9--9--|
|-7--777777777----------|-7--7777------------------|


Fig 2b x2 (spaced for beats here)
|-------------------------|------------------------------|
|-------------------------|------------------------------|
|-------------------------|------------------------------|
|----------------10101010-|--------12--11111111-11111111-|
|-9999-9999-9999-8-8-8-8--|-9999-9910--9-9-9-9--9-9-9-9--|
|-7777-7777-7777----------|-7777-77----------------------|


fill
|---------------|
|---------------|
|---------------|
|-2-2-2-2-2-----|
|-2-2-2-2-2-----|
|-0-0-0-0-0-----|
  _______


Riff 2a x2
|-------------------|-----------------|
|-------------------|-----------------|
|-------------------|-----------------|
|-4---4---5\4--4--4-|-5\4-----5-----5-|
|-2---2---3\2--2--2-|-3\2--x--3--x--3-|
|-------------------|-----------------|
                           _     _


Riff 2b x2
|---------------------|-----------------|
|---------------------|-----------------|
|---------------------|-----------------|
|---------------------|-----------------|
|-2-2-2-2-3\2-2-2-2-2-|-3\2--x--3--x--3-|
|---------------------|-----------------|
                             _     _


Fig 3
|--------|--------|--------|--------|--------|--------|--------|--------|
|-3--3---|-3--3---|-3--3---|-3--3---|-3--3---|-3--3---|--------|--------|
|-5--5---|-5--5---|-5--5---|-5--5---|-5--5---|-5--5---|-7--7---|-7--7---|
|-5--5---|-5--5---|-5--5---|-5--5---|-5--5---|-5--5---|-7--7---|-7--7---|
|-3--3---|-3--3---|-3--3---|-3--3---|-3--3---|-3--3---|-5--5---|-5--5---|
|--------|--------|--------|--------|--------|--------|--------|--------|



Riff 3
|------------------|-------------|
|------------------|-------------|
|------------------|--7----------|
|-9----------------|--5---7---7--|
|-7----------------|------5---5--|
|---0000-0000-0000-|-------------|
|   ______________               |
|                                |
|------------------|-------------|
|------------------|-------------|
|------------------|--7----------|
|-9----------------|--5---7---7--|
|-7----------------|------5---5--|
|------------------|-------------|


Riff 3a x3 (both guitars)
|------------------|-------------|
|------------------|-------------|
|------------------|--7----------|
|-9----------------|--5---7---7--|
|-7----------------|------5---5--|
|---0000-0000-0000-|-------------|
    ______________


|------------------|-------------|----------|
|------------------|-------------|----------|
|------------------|--7----------|-(rest)---|
|-9----------------|--5--7---7---|----------|
|-7----------------|-----5---5---|----------|
|---0000-0000-0000-|-------------|----------|
    ______________


Riff 4 a
|-------------------|------------------|-------------------|------------------|
|-------------------|------------------|-------------------|------------------|
|---------7------7--|----------7-----7-|---------7------7--|----------7-------|
|---------5------5--|----------5-----5-|---------5------5--|----------5---7---|
|-------5------5----|--------5-----5---|-------5------5----|--------5-----5---|
|-0-0-0------0------|-0000-0-----0-----|-0-0-0------0------|-0000-0-----5-----|
  _______    ___      ________   ___     _______    ___      ________   _


Fig 4a
|-------------|-------------|-------------|----------------|
|-------------|-------------|-------------|----------------|
|-------------|-------------|-------------|----------------|
|-------------|-------------|-------------|----------------|
|-2-2-2-------|-2-2-2-------|-2-2-2-------|-2-2-2--(2)-----|
|-0-0-0----\\-|-0-0-0----\\-|-0-0-0----\\-|-0-0-0--(0)--\\-|
  _____         _____         _____         ___



Riff 4b x2
|-------------------|------------------|
|-------------------|------------------|
|---------7------7--|----------7-----7-|
|---------5------5--|----------5-----5-|
|-------5------5----|--------5-----5---|
|-0-0-0------0------|-0000-0-----0-----|
  _______    ___      ________   ___


Fig 4b x4
|-----------------|
|-----------------|
|-----------------|
|---------5-----5-|
|-2-2-2---3-----3-|
|-0-0-0-3---0-3---|
  _______   ___


fill                      pick scrape
|------------------|------------------|
|-7----------------|--(7)-------------|
|-6----------------|--(6)-------------|
|-4----------------|--(4)-------------|
|------------------|-----------\\\----|
|------------------|-----------\\\----|


Riff 1a x2
|------------------|-------------|------------------|------------|
|------------------|-------------|------------------|------------|
|------------------|------7------|------------------|-6---7---6--|
|-9----------------|--7---5---7--|-9----------------|-7---7---7--|
|-7----------------|--5-------5--|-7----------------|------------|
|---0000-0000-0000-|-------------|---0000-0000-0000-|------------|
    ______________                   ______________


outro
  tp      tp     tp
|------|------|------|------|------|------|------|-----|
|------|------|------|------|------|------|------|-----|
|------|------|------|------|------|------|------|-----|
|--3---|------|--3---|--2---|--2---|--2---|--2---|-2---|
|------|--5---|--3---|--2---|--2---|--2---|--2---|-2---|
|------|------|------|------|------|--0---|--0---|-0---|
   _      _      _      _


|------------------|
|------------------|
|-------7----------|
|-9-----5----------|
|-7--9-----9\------|
|----7-----7\------|
  ____

END

  Visit MetalTabs.com for more metal tablature

bottom separator

Contact Us | Privacy Policy | Disclaimer | Legal Notice
Copyright © 2001-2014 MetalTabs.com. All Rights Reserved.