top separator

Home

Forum

What's New

Submit a Tab

FAQ

Links

Contact Us

Link to Us

MuSpy.com

MetalTabs.com logo

Bands

0-9

A

B

C

D

E

F

G

H

I

J

K

L

M

N

O

P

Q

R

S

T

U

V

W

X

Y

Z

Search

What

Where
 

Ram-Zet - "R.I.P." Guitar Tab

Plain Text Version
More Ram-Zet Tabs

Hits: 1870
Updated: 2006-06-25 07:55:53

 

By:

Hetf

sendpm.gif

email.gif

Important note
This tab is available online because we obtained explicit permission from Ram-Zet or their label.


#----------------------------------PLEASE NOTE---------------------------------#
#This file is the author's own work and represents their interpretation of the #
#song. You may only use this file for private study, scholarship, or research. #
#Unless specified otherwise, this is NOT an official tab from the band members.#
#------------------------------------------------------------------------------#

  Visit MetalTabs.com for more metal tablature
  
Band:  Ram-Zet
Album: Escape
Song:  R.I.P

Copyright (c)  2002 - Spikefarm Records
Version 1.0 - 09.04.06

Transcribed By: Kuzoff aka Hetf
Email:          kuzoff@gmail.com


.  - palm mute           /  - slide up to
\  - slide down to       ~  - vibrato
h  - hammer on           b  - Bend
p  - pull off            Suffixes for bend
t  - tap                 f  - full bend    h - half bend
ph - pinched harmonic    q  - quarter bend t - tap bend
*  - see comment         ^  - Hold bend    r release bend
x  - Stuccatto           ~  - vibrato bend
,  - slight palm mute    () - ghost note, sustained note
"  - tremolo note        <> - Trill

Tuning C F A# D# G C




Intro till 0:57



  0:57  Riff 1. Play 16 times.
C ||-----------------------|-------------------------|
G ||-----------------------|-------------------------|
D#||-----------------------|-------------------------|
A#||-----------------------|-------------------------|
F ||-----------------------|-------------------------|
C ||-3--3--33--33--33--33--|--31--11--11--11--1--11--|
     .  .  ..  ..  ..  ..     ..  ..  ..  ..  .  ..


  1:45  Riff 2. Play 2 times.

   Gtr 1
|---------------------------|--------------------------|
|---------------------------|--------------------------|
|---------------------------|--------------------------|
|---------------------------|--------------------------|
|---4--4--4--4--4--4--4--4--|--4--4--4--4--4--4--4--4--|
|---2--2--2--2--2--2--2--2--|--2--2--2--2--2--2--2--2--|
|   .  .  .  .  .  .  .  .  |  .  .  .  .  .  .
|                           |
|  Gtr 2                    |
|---------------------------|--9-----9--7--------------|
|---9--7-----------------9--|-----9-------10--9--7--10-|
|---------9--6-----6--9-----|--------------------------|
|---------------7-----------|--------------------------|
|---------------------------|--------------------------|
|---------------------------|--------------------------|



  Gtr 1
|--------------------------|--------------------------|
|--------------------------|--------------------------|
|--------------------------|--------------------------|
|--2--2--2--2--2--2--2--2--|--------------------------|
|--0--0--0--0--0--0--0--0--|--2--2--2--2--2--2--2--2--|
|--------------------------|--0--0--0--0--0--0--0--0--|
|        .  .  .  .        |        .  .  .  .
|                                |
| Gtr 2                          |
|--8-----------8-----7--5--|--7-----------7-----7-----|
|----10-----10-------------|-----8-----8--------------|
|--------9-----------------|--------9-----------------|
|--------------------------|--------------------------|
|--------------------------|--------------------------|
|--------------------------|--------------------------|


2:09
	  *
|------------------------|-------------------------|
|------------------------|-------------------------|
|------------------------|-------------------------|
|------------------------|-------------------------|
|--4---------------------|-------------------------|
|--2------33--33--33--3--|--311--1--11--11--11--1--|
	    ..  ..  ..  .     ...  .  ..  ..  ..  .

	*Fade in from silence during next 3 bars


|------------------------|-------------------------|
|------------------------|-------------------------|
|------------------------|-------------------------|
|------------------------|-------------------------|
|------------------------|-------------------------|
|--33--33--33--33--3--3--|--311--1--11--11--11--1--|
   ..  ..  ..  ..  .  .     ...  .  ..  ..  ..  .


   2:15  Riff 1 - played 6 times


   2:33
|-------------------------|--------------------------|
|-------------------------|--------------------------|
|-------------------------|--------------------------|
|-------3--6--5-----------|--------3--6--5-----------|
|-------------------3--6--|--5-----------------3--6--|
|--3-------------3--------|-----3-----------3--------|
                   .              .             .

|--------------------------|--------------------------|
|--------------------------|--------------------------|
|--------------------------|--------------------------|
|--------3--6--5-----------|--------------------------|
|--5-----------------6--5--|--5--5--5--5--5--5--5--5--|
|-----3-----------3--------|--3--3--3--3--3--3--3--3--|
      .           .           .  .  .  .  .  .  .  .


2:40  Vocal & Piano solo
|---------------------|
|---------------------|
|---------------------|
|---------------------|
|--7--7---------------|
|--5--5---------------|

2:45
|---------------------|
|---------------------|
|---------------------|
|---------------------|
|--3--3---------------|
|--1--1---------------|


2:58
   *                   *
|-------------------|-------------------|
|-------------------|-------------------|
|-------------------|-------------------|
|-------------------|--3----------------|
|--5----------------|--1----------------|
|--3----------------|-------------------|
			     *Let ring

 Riff 3
|-----------------------|----------------------|
|-----------------------|----------------------|
|-----------------------|----------------------|
|-----------------------|----------------------|
|--7--7--7----7----7----|--7----7----7----7----|
|--5--5--5----5----5----|--5----5----5----5----|
   .  .  .    .    .       .    .    .    .

----------------------|-----------------------|
----------------------|-----------------------|
----------------------|-----------------------|
----------------------|-----------------------|
--7----7----7----7----|--7----7----7----7--7--|
--5----5----5----5----|--5----5----5----5--5--|
       .    .    .       .    .    .



|-----------------------|----------------------|
|-----------------------|----------------------|
|-----------------------|----------------------|
|-----------------------|----------------------|
|--3--3--3----3----3----|--3----3----3----3----|
|--1--1--1----1----1----|--1----1----1----1----|
	   .    .    .       .    .    .


----------------------|----------------------|
----------------------|----------------------|
----------------------|----------------------|
----------------------|--3----3----3----3----|
--5----5----5----5----|--1----1----1----1----|
--3----3----3----3----|----------------------|



Riff 4
|-----------------------|-----------------------|
|-----------------------|-----------------------|
|-----------------------|-----------------------|
|-----------------------|-----------------------|
|-----------------------|-----------------------|
|--5555-5555-5555-5555--|--5555-5555-5555-5555--|
   .... .... .... ....     .... .... .... ....

-----------------------|-----------------------|
-----------------------|-----------------------|
-----------------------|-----------------------|
-----------------------|-----------------------|
-----------------------|-----------------------|
--5555-5555-5555-5555--|--5555-5555-5555-5555--|
  .... .... .... ....     .... .... .... ....


|-----------------------|-----------------------|
|-----------------------|-----------------------|
|-----------------------|-----------------------|
|-----------------------|-----------------------|
|-----------------------|-----------------------|
|--1111-1111-1111-1111--|--1111-1111-1111-1111--|
   .... .... .... ....     .... .... .... ....

-----------------------|-----------------------|
-----------------------|-----------------------|
-----------------------|-----------------------|
-----------------------|-----------------------|
-----------------------|-----------------------|
--3333-3333-3333-3333--|--6666-6666-6666-6666--|
  .... .... .... ....     .... .... .... ....


Riff 5
|----------------------------|----------------------------|
|----------------------------|----------------------------|
|----------------------------|----------------------------|
|------------7---------------|------------7---------------|
|-----7------------7---------|-----7------------7---------|
|--55-----55----55-----5566--|--55-----55----55-----5566--|
   .. .   .. .  .. .   ....     .. .   .. .  .. .   ....

----------------------------|----------------------------|
----------------------------|----------------------------|
----------------------------|----------------------------|
------------7---------------|----------------------------|
-----7------------7---------|-----7------5-----7---------|
--55-----55----55-----5566--|--55-----55----55-----5533--|
  .. .   .. .  .. .   ....     .. .   .. .  .. .   ....


|----------------------------|----------------------------|
|----------------------------|----------------------------|
|----------------------------|----------------------------|
|------------3---------------|------------3---------------|
|-----3------------3---------|-----3------------3---------|
|--11-----11----11-----1111--|--11-----11----11-----1122--|
   .. .   .. .  .. .   ....     .. .   .. .  .. .   ....

----------------------------|----------------------------|
----------------------------|----------------------------|
----------------------------|----------------------------|
----------------------------|----------------------------|
-----5------5-----5------5--|-----8------8-----8---------|
--33-----33----33-----33----|--66-----66----66-----6666--|
  .. .   .. .  .. .   .. .     .. .   .. .  .. .   ....




 3:27

|----------------------|------------------------|
|----------------------|------------------------|
|----------------------|------------------------|
|----------------------|------------------------|
|--7-------------------|------------------------|
|--5--------33--33--3--|--311--1--11--11--11--1-|

------------------------|------------------------|
------------------------|------------------------|
------------------------|------------------------|
------------------------|------------------------|
------------------------|------------------------|
--3--33--33--33--33--3--|--311--1--11--11--11--1-|

  3:33 Riff 1 - play 14 times.


  4:15

  Gtr1
|-------------------------|--------------------------|
|-------------------------|--------------------------|
|-------------------------|--------------------------|
|-------3--6--5-----------|--------3--6--5-----------|
|-------------------3--6--|--5-----------------3--6--|
|--3-------------3--------|-----3-----------3--------|
|                    .    |     .               .            |
| Gtr2                    |                                |
|-------------------------|--------------------------|
|-------------------------|--------------------------|
|-------5--8--7-----------|--------5--8--7-----------|
|-------------------5--8--|--7-----------------5--8--|
|-------------------------|--------------------------|
|--3-------------3--------|-----3-----------3--------|
                     .    .       .

  Gtr1
|--------------------------|--------------------------|
|--------------------------|--------------------------|
|--------------------------|--------------------------|
|--------3--6--5-----------|--------------------------|
|--5-----------------6--5--|--5--5--5--5--5--5--5--5--|
|-----3-----------3--------|--3--3--3--3--3--3--3--3--|
|     .           .        |  .  .  .  .  .  .  .  .
|  Gtr2                    |
|--------------------------|--------------------------|
|--------------------------|--------------------------|
|--------5--8--7-----------|--------------------------|
|--7-----------------8--7--|--------------------------|
|--------------------------|--5--5--5--5--5--5--5--5--|
|-----3-----------3--------|--3--3--3--3--3--3--3--3--|
      .           .           .  .  .  .  .  .  .  .

 4:21 Riff 2 - play 2 times.

 4:45 Riff 3 - play 2 times.

 5:09 Riff 4.

 5:21 Riff 5.


 5:33

  |--3--|  |--3--|  |--3--|  |--3--|     |--3--|  |--3--|  |--3--|  |--3--|
--------------------------------------|--------------------------------------|
--------------------------------------|--------------------------------------|
--------------------------------------|--------------------------------------|
--------------------------------------|--------------------------------------|
--7--7--7--7--7--7--7--7--7--7--7--7--|--7--7--7--7--7--7--7--7--7--7--7--7--|
--5--5--5--5--5--5--5--5--5--5--5--5--|--5--5--5--5--5--5--5--5--5--5--5--5--|
  .  .  .  .  .  .        .  .  .  .     .  .  .  .  .  .        .  .  .  .


  |--3--|  |--3--|  |--3--|  |--3--|     |--3--|  |--3--|  |--3--|  |--3--|
--------------------------------------|--------------------------------------|
--------------------------------------|--------------------------------------|
--------------------------------------|--------------------------------------|
--------------------------------------|--------------------------------------|
--5--5--5--5--5--5--5--5--5--5--5--5--|--5--5--5--5--5--5--5--5--5--5--5--5--|
--3--3--3--3--3--3--3--3--3--3--3--3--|--3--3--3--3--3--3--3--3--3--3--3--3--|
  .  .  .  .  .  .        .  .  .  .     .  .  .  .  .  .        .  .  .  .


  |--3--|  |--3--|  |--3--|  |--3--|     |--3--|  |--3--|  |--3--|  |--3--|
--------------------------------------|--------------------------------------|
--------------------------------------|--------------------------------------|
--------------------------------------|--------------------------------------|
--7--7--7--7--7--7--7--7--7--7--7--7--|--7--7--7--7--7--7--7--7--7--7--7--7--|
--5--5--5--5--5--5--5--5--5--5--5--5--|--5--5--5--5--5--5--5--5--5--5--5--5--|
--------------------------------------|--------------------------------------|
  .  .  .  .  .  .        .  .  .  .     .  .  .  .  .  .        .  .  .  .


  |--3--|  |--3--|  |--3--|  |--3--|     |--3--|  |--3--|  |--3--|  |--3--|
--------------------------------------|--------------------------------------|
--------------------------------------|--------------------------------------|
--------------------------------------|--------------------------------------|
--------------------------------------|--------------------------------------|
--3--3--3--3--3--3--3--3--3--3--3--3--|--5--5--5--5--5--5--5--5--5--5--5--5--|
--1--1--1--1--1--1--1--1--1--1--1--1--|--3--3--3--3--3--3--3--3--3--3--3--3--|
  .  .  .  .  .  .        .  .  .  .     .  .  .  .  .  .        .  .  .  .


--------------
--------------
--------------
--------------
--------------
--5-----------  Let ring

  5:45 Piano solo...

  6:09. Riff 6. play 2 times.

|---------------------------------------------------|
|------------------------------------------13-14-16-|
|---------------13----------------13-14-16----------|
|---14-13-14-16----16-14-13-14-16-------------------|
|---------------------------------------------------|
|---------------------------------------------------|


-----------------------14-16-14-------19-17-16-14-|
--17-16-14-13-14-16-17----------17-16-------------|
--------------------------------------------------|
--------------------------------------------------|
--------------------------------------------------|
--------------------------------------------------|


--------------19--------------18------|--------------17--------------16-------|
--17-17-17-17-----17-17-17-17---------|--14-14-14-14-----14-14-14-14----------|
--------------------------------------|---------------------------------------|
--------------------------------------|---------------------------------------|
--------------------------------------|---------------------------------------|
--------------------------------------|---------------------------------------|


 6:21. Play 4 times.

-----------------------|----------------------|
-----------------------|----------------------|
-----------------------|----------------------|
-----------------------|----------------------|
---4----4----4----4----|--4----4----4---------|
---2----2----2----2----|--2----2----2--3------|
        .    .            .    .    .  ph

                                                     *   *  *
-------------------------------|--------------------------|
-------------------------------|--------------------------|
-------------------------------|--------------------------|
-------------------------------|------------------5-------|
--4-4-4-4--4--4-------4-4-4-4--|--4--4-----x\--5--5-------|
--2-2-2-2--2--2-------2-2-2-2--|--2--2-----x\--3--3-------|
  . . . .  .  .       . . . .     .  .         .

                                                *Play this only first 3 times.

   6:45. Riff 6 - play 2 times.

   6:57. Play 4 times


------------------------|-----------------------|
------------------------|-----------------------|
------------------------|-----------------------|
---2--2--2----2--2--2---|--2--2--2----2--2--2---|
---2--2--2----2--2--2---|--2--2--2----2--2--2---|
---0--0--0----0--0--0---|--0--0--0----0--0--0---|
   .  .       .  .         .  .       .  .

-----------------------|-----------------------|
-----------------------|-----------------------|
-----------------------|-----------------------|
--3--3--3----3--3--3---|--3--3--3----3--3--3---|
--3--3--3----3--3--3---|--3--3--3----3--3--3---|
--1--1--1----1--1--1---|--1--1--1----1--1--1---|
  .  .       .  .         .  .       .  .

   7:21. Play 4 times

|-----------------------------------|-----------------------------------|
|-----------------------------------|-----------------------------------|
|-----------------------------------|-----------------------------------|
|-----------------------------------|-----------------------------------|
|-----------------------------------|-----------------------------------|
|--0-0-0-0-0-0-0-0-0-0-0-0-0-0-0-0--|--1-1-1-1-1-1-1-1-1-1-1-1-1-1-1-1--|
   . . . . . . . . . . . . . . . .     . . . . . . . . . . . . . . . .


   7:45. Play 5 times

---------------------|----------------------|---------------------|
---------------------|----------------------|---------------------|
-----------7---------|--7---------7------\5-|--5----/---7---------|
--7--------7---------|--7---------7------\5-|--5----/---7---------|
--7--------5---------|--5---------5------\3-|--3----/---5---------|
--5--------5---------|--5---------5------\3-|--3----/---5---------|



-----------------------|----------------------|-----------------------|
-----------------------|----------------------|-----------------------|
--7---------7-------\5-|--5----/----7---------|--7---------7-------\5-|
--7---------7-------\5-|--5----/----7---------|--7---------7-------\5-|
--5---------5-------\3-|--3----/----5---------|--5---------5-------\3-|
--5---------5-------\3-|--3----/----5---------|--5---------5-------\3-|



--------------------|----------------------|
--------------------|----------------------|
---------------5----|--5----5----5----5----|
--3------------3----|--3----3----3----3----|
--3------------3----|--3----3----3----3----|
--1------------1----|--1----1----1----1----|


 End with
-------------------
-------------------
--7----------------
--7----------------
--5----------------
--5----------------

THE END.

  Visit MetalTabs.com for more metal tablature

bottom separator

Contact Us | Privacy Policy | Disclaimer | Legal Notice
Copyright © 2001-2014 MetalTabs.com. All Rights Reserved.