#----------------------------------PLEASE NOTE---------------------------------#
#This file is the author's own work and represents their interpretation of the #
#song. You may only use this file for private study, scholarship, or research. #
#Unless specified otherwise, this is NOT an official tab from the band members.#
#------------------------------------------------------------------------------#

  Visit MetalTabs.com for more metal tablature
  
Band:  Coercion
Album: Forever Dead
Song:  Caughing Blood

Copyright (c)  Perverted Taste
Version 1.0 Ė 28.02.2006

Transcribed By: crok
Email:          crok1@gmx.de



Tuning B E A D G  - tuning down/up sucks

If you want it faster, play the single notes more frequently and faster!
Both sounds good... :)


Riff 1  (the first note is not played at first time)
|------------------------|
|------------------------|
|------------------------|      x 6
|------------------------|
|--5-0--7-8-7-8-7-8------|

Riff 2
|--------------------------------------|
|--------------------------------------|
|--------------------------------------|  x 2   then break while guitar plays
|--------------------------------------|
|--0-7-8-7--0-7-8-7--0-7-8-7-8-7-8-7-5-|

Riff 1 x 2

Fill
|------|
|------|
|------|        then break while guitar plays
|------|
|--2---|

Riff 3
|-------------------|
|-------------------|
|-------------------|   x 6
|-------------------|
|--2-2--2--5-5--5---|


Riff 4
|-------------------|
|-------------------|
|-------------------|   x 4
|-------------------|
|--7-7-7-7-5-8-5----|

Riff 3 x 4
Riff 4 x 4
Riff 3 x 4

Fill
|------|
|------|
|------|        then break while guitar plays
|------|
|--7---|


Riff 1 x 2
Riff 2 x 4
Riff 1 x 4

Fill
|------|
|------|
|------|        then break while guitar plays
|------|
|--0---|


Riff 5 (first note only first time)
|----------------------|
|----------------------|
|----------------------|        x 7
|----------------------|
|-2-0--2-3-5-3-5-3-2---|


Riff 6            | at first time you donít play that notes
|--------------------------|
|--------------------------|
|--------------------------|    x 5
|--------------------------|
|-0-0-0-3-0-0-5-0-0-2-3-2--|

Fill
|------|
|------|
|------|        then break while guitar plays
|------|
|--0---|

Riff 1 x 3


END

  Visit MetalTabs.com for more metal tablature