top separator

Home

Forum

What's New

Submit a Tab

FAQ

Links

Contact Us

Link to Us

MuSpy.com

MetalTabs.com logo

Bands

0-9

A

B

C

D

E

F

G

H

I

J

K

L

M

N

O

P

Q

R

S

T

U

V

W

X

Y

Z

Search

What

Where
 

Coroner - "Fried Alive" Guitar Tab

Plain Text Version
More Coroner Tabs

Hits: 2619
Rated: 5.00 out of 5 (1 vote)
Updated: 2006-06-24 08:46:12

 

By:

Chris Rezendes

sendpm.gif

email.gif

Important note
We did our best to reach Coroner and ask for their permission to publish this tab. Unfortunately they did not respond to our requests or we could not find a way to contact them. This tab is available online until Coroner tells us to take it down.


#----------------------------------PLEASE NOTE---------------------------------#
#This file is the author's own work and represents their interpretation of the #
#song. You may only use this file for private study, scholarship, or research. #
#Unless specified otherwise, this is NOT an official tab from the band members.#
#------------------------------------------------------------------------------#

  Visit MetalTabs.com for more metal tablature
  
================================================================================
Song: Fried Alive
Artist: Coroner
Album: R.I.P (1987)

Tabbed by Chris Rezendes (dudemcrude@yahoo.com)
Date started tab: 6/02/06
Date finished tab: 6/07/06

Tuning: E (standard)
Copy: First

Notation Key
~  : vibrato
^  : bend
.  : palm mute
r  : release
t  : trill
p  : pull-off
h  : hammer-on
x  : ghost note
/  : slide up
\  : slide down
>< : pinch harmonics

Comments: This is an awfully fun album, and I consider this specific song the
jewel of the bunch.  I've had a lot of fun playing it, and I hope you do, too.
If you notice anything wrong with this tab, I'd like you to notify me so I can
correct the errors of my way.  Thanks.
================================================================================

Fig. 1 x2
e|----------------------|------------------------|------------------------|
B|----------------------|------------------------|------------------------|
G|----------------------|------------------------|------------------------|
D|--7/9-----10\9---12\--|--------10\9-8-----7/9--|------10\9--------------|
A|--5/7------8\7---10\--|---------8\7-6-----5/7--|-------8\7---7---8---9--|
E|------0-0------0------|--0-0-0--------0-0------|--0-0------0-5-0-6-0-7--|
        . .      .         . . .        . .         . .      .   .   .

e|----------------------|------------------------|------------------------|
B|----------------------|------------------------|------------------------|
G|----------------------|------------------------|------------------------|
D|--7/9-----10\9---12\--|--------10\9-8-----7/9--|------10\9--------------|
A|--5/7------8\7---10\--|---------8\7-6-----5/7--|-------8\7---7---8---4--|
E|------0-0------0------|--0-0-0--------0-0------|--0-0------0-5-0-6-0-2--|
        . .      .         . . .        . .         . .      .   .   .

Fill 1
e|-----|----------------------------------|
B|-----|--5(some kind of harmonics here)--|
G|-----|----------------------------------|
D|--2--|----------------------------------|
A|--2--|----------------------------------|
E|--0--|----------------------------------|

            TIME- 0:25

Riff 1A x1
e|----------|------------------------------------|---------------|
B|----------|------------------------------------|---------------|
G|----------|------------------------------------|---------------|
D|--6-10-9--|--6---------------------------------|---------------|
A|--4--8-7--|--4-44444444-5-44444444-5-44444444--|--5-4-2-0------|
E|----------|------------------------------------|----------4-2--|

e|-----------------------|---------------------------|
B|-----------------------|---------------------------|
G|-----------------------|---------------------------|
D|--6--------------------|--4-2-0-2-0----------------|
A|--4-4-44444-5-4-44444--|------------4-5-4-2-4-2-0--|
E|-----------------------|---------------------------|

            TIME- 0:31

Riff 1B x1
e|---------------------------------------------------|
B|---------------------------------------------------|
G|---------------------------------------------------|
D|--4------------------------------------------------|
A|--2-22222222-22222222-3-2--5-3--2-0--3-2--5-3--2---|
E|------------------------------------------------3--|

e|-----------------------------------------------|
B|-----------------------------------------------|
G|-----------------------------------------------|
D|----------------------4-2-0-------5-4-2--------|
A|--4-------------------------4-2-0-------5-4-2--|
E|--2-22222222-22222222--------------------------|

e|---------|-----------------------------------------------|
B|---------|-----------------------------------------------|
G|---------|-----------------------------------------------|
D|--4-5-6--|----------------------4-2-0-5-4-2--------------|
A|--2-3-4--|--4-------------------------------5-4-2--------|
E|---------|--2-22222222-22222222-------------------5-3-2--|

            TIME- 0:39

Riff 1C x1
e|---------------------------------------------------|
B|---------------------------------------------------|
G|---------------------------------------------------|
D|--4------------------------------------------------|
A|--2-22222222-22222222-3-2--5-3--2-0--3-2--5-3--2---|
E|------------------------------------------------3--|

e|-----------------------------------------------|-----------------|
B|-----------------------------------------------|-----------------|
G|----------------------4-2-0--------------------|-----------------|
D|----------------------------4-2-0--------------|----10-9--6-7-8--|
A|--4-------------------------------4-2-0--------|--9--8-7--4-5-6--|
E|--2-22222222-22222222-------------------4-2-0--|--7--------------|

            TIME- 0:45

Fig. 1 x2
e|----------------------|------------------------|------------------------|
B|----------------------|------------------------|------------------------|
G|----------------------|------------------------|------------------------|
D|--7/9-----10\9---12\--|--------10\9-8-----7/9--|------10\9--------------|
A|--5/7------8\7---10\--|---------8\7-6-----5/7--|-------8\7---7---8---9--|
E|------0-0------0------|--0-0-0--------0-0------|--0-0------0-5-0-6-0-7--|
        . .      .         . . .        . .         . .      .   .   .

e|----------------------|------------------------|------------------------|
B|----------------------|------------------------|------------------------|
G|----------------------|------------------------|------------------------|
D|--7/9-----10\9---12\--|--------10\9-8-----7/9--|------10\9--------------|
A|--5/7------8\7---10\--|---------8\7-6-----5/7--|-------8\7---7---8---4--|
E|------0-0------0------|--0-0-0--------0-0------|--0-0------0-5-0-6-0-2--|
        . .      .         . . .        . .         . .      .   .   .

            TIME- 1:06

Riff 2A x2
e|-----------------|-----------------|-------------------|
B|-----------------|-----------------|-------------------|
G|-----------------|-----------------|-------------------|
D|--8-8--8--8-8-8--|--8-8--8--8-8-8--|-------------------|
A|--6-6--6--6-6-6--|--6-6--6--6-6-6--|----8---7-6---8-7--|
E|-----------------|-----------------|--0---0-----0------|

e|-------------------|-------------------|-------------------|
B|-------------------|-------------------|-------------------|
G|-------------------|-------------------|-------------------|
D|-------------------|-------------------|-------------------|
A|----8---7-6---8-7--|----8---7-6---8-7--|----8---7-6---8-7--|
E|--0---0-----0------|--0---0-----0------|--0---0-----0------|

            TIME- 1:20

Riff 2B x1
e|----------------|----------------|-------------------|
B|----------------|----------------|-------------------|
G|----------------|----------------|-------------------|
D|----------------|----------------|-------------------|
A|--6/7\5--5/6\4--|--6/7\5--5/6\4--|----8---7-6---8-7--|
E|----------------|----------------|--0---0-----0------|

e|-------------------|-------------------|-------------------|
B|-------------------|-------------------|-------------------|
G|-------------------|-------------------|-------------------|
D|-------------------|-------------------|-------------------|
A|----8---7-6---8-7--|----8---7-6---8-7--|----8---7-6---8-7--|
E|--0---0-----0------|--0---0-----0------|--0---0-----0------|

Fill 2
e|--------------------------------|
B|--------------------------------|
G|--------------------------------|
D|--9--8-7--6-5-4-----------------|
A|--7--6-5--4-3-2--8--7-6--5-4-3--|
E|-----------------6--5-4--3-2-1--|

            TIME- 1:28

Fig. 2 x2
e|--------------|--------------------------------|
B|--------------|--------------------------------|
G|--------------|--5--8--5--7--8--5--4-----4--7--|
D|--5-----5-----|--5--8--5--7--8--5--4--5--4--7--|
A|--3-7\--3-7\--|--3--6--3--5--6--3--2--5--2--5--|
E|--------------|-----------------------3--------|

e|--------------|-------------------------------|
B|--------------|-------------------------------|
G|--------------|--5--8--5----4-----4--5--7--8--|
D|--5-----5-----|--5--8--5----4--5--4--5--7--8--|
A|--3-7\--3-7\--|--3--6--3----2--5--2--3--5--6--|
E|--------------|----------------3--------------|

Fill 3A
e|------------------------------|---------------|
B|------------------------------|---------------|
G|------------------------------|--6-5-4--------|
D|------------------------------|--4-3-2-6-7-8--|
A|--5-5-5--4-4-4---------6-5----|--------4-5-6--|
E|----------------6-5-3------6--|---------------|

            TIME- 1:48

Fig. 1 x2
e|----------------------|------------------------|------------------------|
B|----------------------|------------------------|------------------------|
G|----------------------|------------------------|------------------------|
D|--7/9-----10\9---12\--|--------10\9-8-----7/9--|------10\9--------------|
A|--5/7------8\7---10\--|---------8\7-6-----5/7--|-------8\7---7---8---9--|
E|------0-0------0------|--0-0-0--------0-0------|--0-0------0-5-0-6-0-7--|
        . .      .         . . .        . .         . .      .   .   .

e|----------------------|------------------------|------------------------|
B|----------------------|------------------------|------------------------|
G|----------------------|------------------------|------------------------|
D|--7/9-----10\9---12\--|--------10\9-8-----7/9--|------10\9--------------|
A|--5/7------8\7---10\--|---------8\7-6-----5/7--|-------8\7---7---8---4--|
E|------0-0------0------|--0-0-0--------0-0------|--0-0------0-5-0-6-0-2--|
        . .      .         . . .        . .         . .      .   .   .

            TIME- 2:08

Riff 2A x2
e|-----------------|-----------------|-------------------|
B|-----------------|-----------------|-------------------|
G|-----------------|-----------------|-------------------|
D|--8-8--8--8-8-8--|--8-8--8--8-8-8--|-------------------|
A|--6-6--6--6-6-6--|--6-6--6--6-6-6--|----8---7-6---8-7--|
E|-----------------|-----------------|--0---0-----0------|

e|-------------------|-------------------|-------------------|
B|-------------------|-------------------|-------------------|
G|-------------------|-------------------|-------------------|
D|-------------------|-------------------|-------------------|
A|----8---7-6---8-7--|----8---7-6---8-7--|----8---7-6---8-7--|
E|--0---0-----0------|--0---0-----0------|--0---0-----0------|

            TIME- 2:22

Riff 2B x1
e|----------------|----------------|-------------------|
B|----------------|----------------|-------------------|
G|----------------|----------------|-------------------|
D|----------------|----------------|-------------------|
A|--6/7\5--5/6\4--|--6/7\5--5/6\4--|----8---7-6---8-7--|
E|----------------|----------------|--0---0-----0------|

e|-------------------|-------------------|-------------------|
B|-------------------|-------------------|-------------------|
G|-------------------|-------------------|-------------------|
D|-------------------|-------------------|-------------------|
A|----8---7-6---8-7--|----8---7-6---8-7--|----8---7-6---8-7--|
E|--0---0-----0------|--0---0-----0------|--0---0-----0------|

Fill 2
e|--------------------------------|
B|--------------------------------|
G|--------------------------------|
D|--9--8-7--6-5-4-----------------|
A|--7--6-5--4-3-2--8--7-6--5-4-3--|
E|-----------------6--5-4--3-2-1--|

            TIME- 2:30

Fig. 2 x2
e|--------------|--------------------------------|
B|--------------|--------------------------------|
G|--------------|--5--8--5--7--8--5--4-----4--7--|
D|--5-----5-----|--5--8--5--7--8--5--4--5--4--7--|
A|--3-7\--3-7\--|--3--6--3--5--6--3--2--5--2--5--|
E|--------------|-----------------------3--------|

e|--------------|-------------------------------|
B|--------------|-------------------------------|
G|--------------|--5--8--5----4-----4--5--7--8--|
D|--5-----5-----|--5--8--5----4--5--4--5--7--8--|
A|--3-7\--3-7\--|--3--6--3----2--5--2--3--5--6--|
E|--------------|----------------3--------------|

Fill 3B
e|------------------------------|
B|------------------------------|
G|------------------------------|
D|------------------------------|
A|--5-5-5--4-4-4---------6-5----|
E|----------------6-5-3------6--|

            TIME- 2:49
Riff 3 x2
e|---------------|--------------------|---------------|--------------------|
B|---------------|--------------------|---------------|--------------------|
G|--------2-3-4--|--9--7--9--7--5--4--|--------2-3-4--|--9--7--5--4--5--4--|
D|--2-3-5--------|--9--7--9--7--5--4--|--2-3-5--------|--9--7--5--4--5--4--|
A|---------------|--7--5--7--5--3--2--|---------------|--7--5--3--2--3--2--|
E|---------------|--------------------|---------------|--------------------|

            TIME- 2:58

Riff 4 x1
e|-------------------------------------------|
B|-------------------------------------------|
G|------------------------------12-11-12-11--|
D|------------------------------10--9-10--9--|
A|--79999999--79999999-79999999--------------|
E|-------------------------------------------|

e|-----------------------------------------|
B|-----------------------------------------|
G|-----------------------------------------|
D|------------------------------11---------|
A|--79999999--79999999-79999999--9--11-10--|
E|-----------------------------------9--8--|

            TIME- 3:04

Riff 5 x1
e|--------------------|--------------------|--------------------|
B|--------------------|--------------------|--------------------|
G|--------------------|--------------------|--------------------|
D|-----------7---7-9--|-----------7---7-9--|-----------7---7-9--|
A|-----------5---5-7--|-----------5---5-7--|-----------5---5-7--|
E|--77777777---7------|--77777777---7------|--77777777---7------|

e|------------------|
B|------------------|
G|------------------|
D|------------------|
A|-----------9-7-5--|
E|--77777777-7-5-3--|

            TIME- 3:09

Riff 6 x1
e|--------------------------------|----------------------------------|
B|--------------------------------|----------------------------------|
G|--------------------------------|----------------------------------|
D|-------------------4-2----------|---------------------------9------|
A|-----------------------5-4-2----|--777777777777777777777777-7-9-5--|
E|--2222222222222222-----------5--|-----------------------------7-3--|

e|--------------------------------|----------------------------------|
B|--------------------------------|----------------------------------|
G|--------------------------------|----------------------------------|
D|-------------------4-2----------|----------------------------------|
A|-----------------------5-4-2----|--777777777777777777777777-2-3-4--|
E|--2222222222222222-----------5--|---------------------------0-1-2--|

Fill 4
e|------------------------|----------------|
B|------------------------|----------------|
G|------------------------|----------------|
D|------------------------|----------------|
A|--6------8------9-------|--6-4-2--6-8-9--|
E|--444444-666666-777777--|--4-2-0--4-6-7--|

            TIME- 3:21

Riff 7 x2
e|------------------------------------------------|
B|------------------------------------------------|
G|------------------------------------------------|
D|--5--------8------------------------------------|
A|--33333333-66666666-6--------5--------6---------|
E|--------------------44444444-33333333-44444444--|

e|-------------------------------------|---------------|
B|-------------------------------------|---------------|
G|-------------------------------------|---------------|
D|-----------8-7----------5-3---3------|--4-5-7---2-4--|
A|--6--------6-5-5------------6---6-5--|--2-3-5-5-0-2--|
E|--44444444-----33333333--------------|--------3------|

Fill 5
e|--------------------|---------|
B|--------------------|---------|
G|--------------------|---------|
D|--4/6-----7\6---9\--|--6-7-8--|
A|--2/4-4-4-5\4-4-7\--|--4-5-6--|
E|--------------------|---------|

            TIME- 3:36

Fig. 1 x2
e|----------------------|------------------------|------------------------|
B|----------------------|------------------------|------------------------|
G|----------------------|------------------------|------------------------|
D|--7/9-----10\9---12\--|--------10\9-8-----7/9--|------10\9--------------|
A|--5/7------8\7---10\--|---------8\7-6-----5/7--|-------8\7---7---8---9--|
E|------0-0------0------|--0-0-0--------0-0------|--0-0------0-5-0-6-0-7--|
        . .      .         . . .        . .         . .      .   .   .

e|----------------------|------------------------|------------------------|
B|----------------------|------------------------|------------------------|
G|----------------------|------------------------|------------------------|
D|--7/9-----10\9---12\--|--------10\9-8-----7/9--|------10\9--------------|
A|--5/7------8\7---10\--|---------8\7-6-----5/7--|-------8\7---7---8---4--|
E|------0-0------0------|--0-0-0--------0-0------|--0-0------0-5-0-6-0-2--|
        . .      .         . . .        . .         . .      .   .   .

            TIME- 3:57

Riff 2A x2
e|-----------------|-----------------|-------------------|
B|-----------------|-----------------|-------------------|
G|-----------------|-----------------|-------------------|
D|--8-8--8--8-8-8--|--8-8--8--8-8-8--|-------------------|
A|--6-6--6--6-6-6--|--6-6--6--6-6-6--|----8---7-6---8-7--|
E|-----------------|-----------------|--0---0-----0------|

e|-------------------|-------------------|-------------------|
B|-------------------|-------------------|-------------------|
G|-------------------|-------------------|-------------------|
D|-------------------|-------------------|-------------------|
A|----8---7-6---8-7--|----8---7-6---8-7--|----8---7-6---8-7--|
E|--0---0-----0------|--0---0-----0------|--0---0-----0------|

            TIME- 4:11

Riff 2B x1
e|----------------|----------------|-------------------|
B|----------------|----------------|-------------------|
G|----------------|----------------|-------------------|
D|----------------|----------------|-------------------|
A|--6/7\5--5/6\4--|--6/7\5--5/6\4--|----8---7-6---8-7--|
E|----------------|----------------|--0---0-----0------|

e|-------------------|-------------------|-------------------|
B|-------------------|-------------------|-------------------|
G|-------------------|-------------------|-------------------|
D|-------------------|-------------------|-------------------|
A|----8---7-6---8-7--|----8---7-6---8-7--|----8---7-6---8-7--|
E|--0---0-----0------|--0---0-----0------|--0---0-----0------|

Fill 2
e|--------------------------------|
B|--------------------------------|
G|--------------------------------|
D|--9--8-7--6-5-4-----------------|
A|--7--6-5--4-3-2--8--7-6--5-4-3--|
E|-----------------6--5-4--3-2-1--|

Coda
e|-----|-----|-------------|
B|-----|-----|-------------|
G|-----|-----|-------------|
D|--6--|--5--|--5------5/--|
A|--4--|--3--|--3-3333-3/--|
E|-----|-----|-------------|

  Visit MetalTabs.com for more metal tablature

bottom separator

Contact Us | Privacy Policy | Disclaimer | Legal Notice
Copyright © 2001-2014 MetalTabs.com. All Rights Reserved.