top separator

Home

Forum

What's New

Submit a Tab

FAQ

Links

Contact Us

Link to Us

MetalTabs.com logo

Bands

0-9

A

B

C

D

E

F

G

H

I

J

K

L

M

N

O

P

Q

R

S

T

U

V

W

X

Y

Z

Search

What

Where
 

Samael - "High Above" Guitar Tab

Plain Text Version
More Samael Tabs

Hits: 2775
Updated: 2008-04-28 22:55:59

 

By:

sendpm.gif

email.gif

Important note
This tab is available online because we obtained explicit permission from Samael or their label.


#----------------------------------PLEASE NOTE---------------------------------#
#This file is the author's own work and represents their interpretation of the #
#song. You may only use this file for private study, scholarship, or research. #
#Unless specified otherwise, this is NOT an official tab from the band members.#
#------------------------------------------------------------------------------#

  Visit MetalTabs.com for more metal tablature
  
Band: Samael
Album: Reign of Light
Song: High Above

Copyright (c) Regain Records 2004
Version 1.1 - 24.04.08

Transcribed By: eRyahXa0S/Darth Wojtex
Email: darthwojtex@interia.pl

~ vibrato
b - bend
ah/nh - harmonics
ps - pick slide
/ - slide
h - hammer on
p - pull of
x - dead note
= - tremolo
_pm - palm mute

Tuning D A F C G D (1 step down)

intro - synth

begin

|----|
|----|
|----|
|-9\-|
|-7\-|
|----|

riff 1 x4

|------------------------------------------|
|------------------------------------------|
|------------------------------------------|
|-----13------13-10/16-----13----9----10\7-|
|---7-11----7-11-8/-14---7-11----7-----8\5-|
|-00------00-----------00-----00---00------|
  ___     ___          ___    __   __       pm

riff 2

|---------------|
|---------------|
|-/5555-44------|
|---------------|
|-/3333-22-3b3b-|
|---------------|
           ahah

riff 3

|-----------------------------------|
|-----------------------------------|
|-----13-----13-10/16-/5555-44------|
|-----------------------------------|
|---7-11---7-11-8/14--/3333-22-3b3b-|
|-00-----00-------------------------|
  ___    ___                   ahah  pm

riff 4 x2

|---------------------|
|---------------------|
|---------------------|
|-9\-------9\---------|
|-7\-22-22-7\-22-2222-|
|----00-00----00-0000-|

riff 1 (guitar I) x2

|------------------------------------------|
|------------------------------------------|
|------------------------------------------|
|-----13------13-10/16-----13----9----10\7-|
|---7-11----7-11--8/14---7-11----7-----8\5-|
|-00------00-----------00-----00---00------|
  ___     ___          ___    __   __       pm

riff 5 (guitar II flanger) x6

|-------------------------------------------------------------|
|-------------------------------------------------------------|
|-------------------------------------------------------------|
|-99999999101010101010101010101010101010101212121212121212\10-|
|-------------------------------------------------------------|
|-------------------------------------------------------------|

riff 6

|-----------|
|-----------|
|-\5-4------|
|-----------|
|-\3-2-3b3b-|
|-----------|
       ahah

riff 3 x2

|------------------------------------|
|------------------------------------|
|-----13-----13-10/16-/5555-44-------|
|------------------------------------|
|---7-11---7-11--8/14--/3333-22-3b3b-|
|-00-----00--------------------------|
  ___    ___                    ahah  pm

riff 7 x4

|----------------------------------|
|----------------------------------|
|----------------------------------|
|-9999999999999999555555554444-----|
|-77777777777777773333333322223b3b-|
|----------------------------------|
                              ahah

riff 4

|---------------------|
|---------------------|
|---------------------|
|-9\-------9\---------|
|-7\-22-22-7\-22-2222-|
|----00-00----00-0000-|

riff 8 (guitar I) x6

|--------------------------|
|--------------------------|
|------9-9---9-9-9-----9-9-|
|--------------------------|
|---77-7-7---7-7-7-7---7-7-|
|-00-------0---------0-----|
  ____     _       _ _      pm

riff 9 (guitar II) x6

|---------------------|
|---------------------|
|-7/9-9-10b9-10p9-9-9-|
|---------------------|
|-5/7-----------------|
|---------------------|

riff 10

|---------------------------|
|---------------------------|
|-----13-----13-10/16-----9-|
|---------------------------|
|---7-11---7-11--8/14-----7-|
|-00-----00------------00---|
  ___    ___           __    pm

riff 1 x2

|------------------------------------------|
|------------------------------------------|
|------------------------------------------|
|-----13------13-10/16-----13----9----10\7-|
|---7-11----7-11-8/-14---7-11----7-----8\5-|
|-00------00-----------00-----00---00------|
  ___     ___          ___    __   __       pm

riff 11

|---------------------|
|---------------------|
|-/5-5-7-5-5555-44444-|
|---------------------|
|-/3-3-5-3-3333-22222-|
|---------------------|

riff 7 x3

|----------------------------------|
|----------------------------------|
|----------------------------------|
|-9999999999999999555555554444-----|
|-77777777777777773333333322223b3b-|
|----------------------------------|
                              ahah

riff 7b

|-------------------|
|-------------------|
|-------------------|
|-99999999999999995-|
|-77777777777777773-|
|-------------------|

riff 4 x2

|---------------------|
|---------------------|
|---------------------|
|-9\-------9\---------|
|-7\-22-22-7\-22-2222-|
|----00-00----00-0000-|

  Visit MetalTabs.com for more metal tablature

bottom separator

Contact Us | Privacy Policy | Disclaimer | Legal Notice
Copyright © 2001-2014 MetalTabs.com. All Rights Reserved.