top separator

Home

Forum

What's New

Submit a Tab

FAQ

Links

Contact Us

Link to Us

MetalTabs.com logo

Bands

0-9

A

B

C

D

E

F

G

H

I

J

K

L

M

N

O

P

Q

R

S

T

U

V

W

X

Y

Z

Search

What

Where
 

Gorerotted - "Pain As A Prelude To Death" Guitar Tab

Plain Text Version
More Gorerotted Tabs

Hits: 2460
Rated: 4.00 out of 5 (1 vote)
Updated: 2006-08-18 04:05:36

 

By:

[Nocturno_Culto]

sendpm.gif

email.gif

Important note
This tab is available online because we obtained explicit permission from Gorerotted or their label.


#----------------------------------PLEASE NOTE---------------------------------#
#This file is the author's own work and represents their interpretation of the #
#song. You may only use this file for private study, scholarship, or research. #
#Unless specified otherwise, this is NOT an official tab from the band members.#
#------------------------------------------------------------------------------#

  Visit MetalTabs.com for more metal tablature
  
Band: Gorerotted
Album: A New Dawn For The Dead
Song: Pain As A Prelude To Death

Transcribed By: Nocturno Culto
Email: Slash_6661@hotmail.com


.  - palm mute           /  - slide up to
  - slide down to       ~  - vibrato
h  - hammer on           b  - Bend
p  - pull off            Suffixes for bend
t  - tap                 f  - full bend    h - half bend
ph - pinched harmonic    q  - quarter bend t - tap bend
*  - see comment         ^  - Hold bend    r release bend
x  - Stuccatto           ~  - vibrato bend
,  - slight palm mute    () - ghost note, sustained note
"  - tremolo note        <> - Trill

Tuning C# F# B E G# C# (that's the tune wich the song is tabbed, but gorerotted
tunes in D I Think)


|-------------------------------------|
|-------------------------------------|
|-------------------------------------|
|-------------------4-----------------|
|--------6-----------------5----------|x4 in the last play in 5 a power chord,
|-3-----------------------------------|   not tremolo pick
  "      "          "      "

|-------------------------------------|
|-------------------------------------|
|-------------------------------------|
|--------8------8---11---11-7----7----|
|-5----5-6------6---9----9--5----5----|x4
|-3----3------------------------------|
       .        .        .       .

|---|
|---|
|---|
|-5-|
|-5-|
|-3-|

Verse (just bass doing the first riff)

|-------------------------------------|
|-------------------------------------|
|-------------------------------------|
|-------------------4-----------------|
|--------6-----------------5----------|x4
|-3-----------------------------------|
  "      "          "      "

|---|
|---|
|---|
|-5-|
|-5-|
|-3-|

Verse again...

|-------------------------------------|
|-------------------------------------|
|-------------------------------------|
|-------------------4-----------------|
|--------6-----------------5----------|x4
|-3-----------------------------------|
  "      "          "      "


|-----------------------------------------------------------------|
|-----------------------------------------------------------------|
|-----------------------------------------------------------------|
|-----------------------------------------------------------------|
|-5-5-5-6-6-6-6---5-5-5-6-6-6-6---4-4-4-5-5-5-5---4-4-4-5-5-5-5---|x2
|-3-3-3-4-4-4-4---3-3-3-4-4-4-4---2-2-2-3-3-3-3---2-2-2-3-3-3-3---|
              .               .               .               .

Now guitar 1 play this and guitar 2 the riff before
|-----------------------------------------------------------------|
|-----------------------------------------------------------------|
|-----------------------------------------------------------------|
|-5-6-5-6-5-6-5-6-5-6-5-6-5-6-5-6-4-5-4-5-4-5-4-5-4-5-4-5-4-5-4-5-|x2
|-----------------------------------------------------------------|
|-----------------------------------------------------------------|

Guitar 2 doubles one octave lower
|-------------------------|   ----------------------|
|-------------------------|   ----------------------|
|-------------10-11-10----|   ------------9-10-9----|
|-------12-13----------13-|x2 ------11-12--------12-|x2 Play all the fig x4
|-10-11-------------------|   -9-10-----------------|
|-------------------------|   ----------------------|
   .  .  .  .  .  .  .  .      .  .  .  . .  . . .


|-----------------------------------------------------------------|
|-----------------------------------------------------------------|
|-----------------------------------------------------------------|
|-----------------------------------------------------------------|
|-5-5-5-6-6-6-6---5-5-5-6-6-6-6---4-4-4-5-5-5-5---4-4-4-5-5-5-5---|x2
|-3-3-3-4-4-4-4---3-3-3-4-4-4-4---2-2-2-3-3-3-3---2-2-2-3-3-3-3---|
              .               .               .               .


Now guitar 1 play this and guitar 2 the riff before
|-----------------------------------------------------------------|
|-----------------------------------------------------------------|
|-----------------------------------------------------------------|
|-5-8-5-8-5-8-5-8-5-8-5-8-5-8-5-8-4-7-4-7-4-7-4-7-4-7-4-7-4-7-4-7-|x2
|-----------------------------------------------------------------|
|-----------------------------------------------------------------|

Guitar 2 doubles one octave lower

|-------------------------|   ----------------------|
|-------------------------|   ----------------------|
|-------------10-11-10----|   ------------9-10-9----|
|-------12-13----------13-|x2 ------11-12--------12-|x2 Play all the fig x4
|-10-11-------------------|   -9-10-----------------|
|-------------------------|   ----------------------|
   .  .  .  .  .  .  .  .      .  .  .  . .  . . .



|-------------------------------------|
|-------------------------------------|
|-------------------------------------|
|-------------------4-----------------|
|--------6-----------------5----------|x4
|-3-----------------------------------|
  "      "          "      "


|-------------------------------------|
|-------------------------------------|
|-------------------------------------|
|--------8------8---11---11-7----7----|
|-5----5-6------6---9----9--5----5----|x4
|-3----3------------------------------|
       .        .        .       .


END

  Visit MetalTabs.com for more metal tablature

bottom separator

Contact Us | Privacy Policy | Disclaimer | Legal Notice
Copyright © 2001-2014 MetalTabs.com. All Rights Reserved.