top separator

Home

Forum

What's New

Submit a Tab

FAQ

Links

Contact Us

Link to Us

MuSpy.com

MetalTabs.com logo

Bands

0-9

A

B

C

D

E

F

G

H

I

J

K

L

M

N

O

P

Q

R

S

T

U

V

W

X

Y

Z

Search

What

Where
 

Belphegor - "Diaboli Virtues in Lumbar Est" Guitar Tab

Plain Text Version
More Belphegor Tabs

Hits: 4679
Rated: 2.00 out of 5 (2 votes)
Updated: 2006-06-24 08:33:16

 

By:

Robbie Filth

sendpm.gif

email.gif

Important note
This tab is available online because we obtained explicit permission from Belphegor or their label.


#----------------------------------PLEASE NOTE---------------------------------#
#This file is the author's own work and represents their interpretation of the #
#song. You may only use this file for private study, scholarship, or research. #
#Unless specified otherwise, this is NOT an official tab from the band members.#
#------------------------------------------------------------------------------#

  Visit MetalTabs.com for more metal tablature
  
Band: Belphegor
Album: Lucifer Incestus
Song: Diaboli Virtues in Lumbar Est
Record Label: Napalm [Spv]
Tuning: C F A# D# G C

-------------------------------------------------------------
-------------------------------------------------------------
------------------------------------------------------4-3-1--
------------------4-3-1-6-4-3---4-3-1-6-4-3---4-3-1-3--------
---9-8-6-11-9-8----------------------------------------------
-6--------------2-------------1-------------2----------------X2
trem........................................................

------------------------------------------------------------------
------------------------------------------------------------------
------------------------------------------------------------------
-8-8-8-8-8-------8-8-8-8-8-7-7---8-8-8-8-8-------8-8-8-8-8-9-9-6--
-6-6-6-6-6-9-9-8-6-6-6-6-6-5-5-9-6-6-6-6-6-9-9-7-6-6-6-6-6-7-7-4--
-----------7-7-6---------------7-----------7-7-5------------------
trem.............................................................

--------------------------------------
--------------------------------------
--------------------------------------
-8--------8----7---8--------8----9-6--
-6----9-8-6----5-9-6----9-7-6----7-4--
------7-6--------7------7-5-----------

------------------------------------------------------------------
------------------------------------------------------------------
------------------------------------------------------------------
-----8-8-6-6-8-8-----8-8-6-8-6------------------------------------
-6-6-------------6-6-----------9-----8-8-6-6-8-8-----8-8-6-9-8-6--
---------------------------------6-6-------------6-6--------------X2
 trem............................................................

-------------------------------------------------------------
-------------------------------------------------------------
------------------------------------------------------4-3-1--
------------------4-3-1-6-4-3---4-3-1-6-4-3---4-3-1-3--------
---9-8-6-11-9-8----------------------------------------------
-6--------------2-------------1-------------2----------------X2
trem........................................................

------------------------------------------------------------------
------------------------------------------------------------------
------------------------------------------------------------------
-8-8-8-8-8-------8-8-8-8-8-7-7---8-8-8-8-8-------8-8-8-8-8-9-9-6--
-6-6-6-6-6-9-9-8-6-6-6-6-6-5-5-9-6-6-6-6-6-9-9-7-6-6-6-6-6-7-7-4--
-----------7-7-6---------------7-----------7-7-5------------------
trem.............................................................

--------------------------------------
--------------------------------------
--------------------------------------
-8--------8----7---8--------8----9-6--
-6----9-8-6----5-9-6----9-7-6----7-4--
------7-6--------7------7-5-----------

------------------------------------------------------------------
------------------------------------------------------------------
------------------------------------------------------------------
-----8-8-6-6-8-8-----8-8-6-8-6------------------------------------
-6-6-------------6-6-----------9-----8-8-6-6-8-8-----8-8-6-9-8-6--
---------------------------------6-6-------------6-6--------------X2
 trem............................................................

----------------------------------------------
----------------------------------------------
----------------------------------------------
--------------6-4-3----6-4-3-4-4-4-4-3-3-3-3--
-8--11-9-8-4--------3--------x-x-x-x-x-x-x-x--
-6---------2--------1--------2-2-2-2-1-1-1-1--

----------------------------------------------
----------------------------------------------
----------------------------------------------
--------------6-4-3----6-4-3-4-4-4-4-3-3-3-3--
-8--11-9-8-4--------3--------x-x-x-x-x-x-x-x--
-6---------2--------1--------2-2-2-2-1-1-1-1--X3
trem........................

------------------------------------------------------------------
------------------------------------------------------------------
------------------------------------------------------------------
-8-8-8-8-8-------8-8-8-8-8-7-7---8-8-8-8-8-------8-8-8-8-8-9-9-6--
-6-6-6-6-6-9-9-8-6-6-6-6-6-5-5-9-6-6-6-6-6-9-9-7-6-6-6-6-6-7-7-4--
-----------7-7-6---------------7-----------7-7-5------------------
trem.............................................................

--------------------------------------
--------------------------------------
--------------------------------------
-8--------8----7---8--------8----9-6--
-6----9-8-6----5-9-6----9-7-6----7-4--
------7-6--------7------7-5-----------

------------------------------------------------------------------
------------------------------------------------------------------
------------------------------------------------------------------
-----8-8-6-6-8-8-----8-8-6-8-6------------------------------------
-6-6-------------6-6-----------9-----8-8-6-6-8-8-----8-8-6-9-8-6--
---------------------------------6-6-------------6-6--------------X2
 trem............................................................

------------------------------------------------------------------
------------------------------------------------------------------
------------------------------------------------------------------
-9-9-9-9-8-8-8-8-9-9-9-9-8-8-8-8----------------------------------
-6-6-6-6-6-6-6-6-6-6-6-6-6-6-6-6-9-9-9-9-8-8-8-8-9-9-9-9-8-8-8-8--
---------------------------------6-6-6-6-6-6-6-6-6-6-6-6-6-6-6-6--
 trem............................................................

---------------------------------------------------------------------
---------------------------------------------------------------------
---------------------------------------------------------------------
-9-9-9-9-8-8-8-8-9-9-9-9-11-9-8-8------------------------------------
-6-6-6-6-6-6-6-6-6-6-6-6--6-6-6-6-9-9-9-9-8-8-8-8-9-9-8-8-11-11-9-9--
----------------------------------6-6-6-6-6-6-6-6-7-7-6-6--9--9-7-7--
 trem...............................................................

------------------------------------------------------------------
------------------------------------------------------------------
------------------------------------------------------------------
-9-9-9-9-8-8-8-8-9-9-9-9-8-8-8-8----------------------------------
-6-6-6-6-6-6-6-6-6-6-6-6-6-6-6-6-9-9-9-9-8-8-8-8-9-9-9-9-8-8-8-8--
---------------------------------6-6-6-6-6-6-6-6-6-6-6-6-6-6-6-6--
 trem............................................................

---------------------------------------------------------------------
---------------------------------------------------------------------
---------------------------------------------------------------------
-9-9-9-9-8-8-8-8-9-9-9-9-11-9-8-8------------------------------------
-6-6-6-6-6-6-6-6-6-6-6-6--6-6-6-6-9-9-9-9-8-8-8-8-9-9-8-8-11-11-9-9--
----------------------------------6-6-6-6-6-6-6-6-7-7-6-6--9--9-7-7--
 trem...............................................................

------------------------------------------------------------------
------------------------------------------------------------------
------------------------------------------------------------------
-9-9-9-9-8-8-8-8-9-9-9-9-8-8-8-8----------------------------------
-6-6-6-6-6-6-6-6-6-6-6-6-6-6-6-6-9-9-9-9-8-8-8-8-9-9-9-9-8-8-8-8--
---------------------------------6-6-6-6-6-6-6-6-6-6-6-6-6-6-6-6--
 trem............................................................

---------------------------------------------------------------------
---------------------------------------------------------------------
---------------------------------------------------------------------
-9-9-9-9-8-8-8-8-9-9-9-9-11-9-8-8------------------------------------
-6-6-6-6-6-6-6-6-6-6-6-6--6-6-6-6-9-9-9-9-8-8-8-8-9-9-8-8-11-11-9-9--
----------------------------------6-6-6-6-6-6-6-6-7-7-6-6--9--9-7-7--
 trem...............................................................

----------------------------------------------------------------------
----------------------------------------------------------------------
---------------------------4-3-1---------------------------4-3-1------
---4-3-1-3-6-4-3---4-3-1-3---------4-3-1-3-6-4-3---4-3-1-3-------8----
-----------------------------------------------------------------6----
-2---------------2---------------2---------------2--------------------
 trem........................................................... let ring

THE END

any corrections mail them to: septic_flesh241@hotmail.com

  Visit MetalTabs.com for more metal tablature

bottom separator

Contact Us | Privacy Policy | Disclaimer | Legal Notice
Copyright © 2001-2014 MetalTabs.com. All Rights Reserved.